Oops, an error
Loading. Please wait.

Lines Are Faded Bass Tab

674 views 1 this week
1 commentread comment
1 2 3 4 5
2 more votes to show rating
add to favorites
launch autoscroll
font size
0
reset
guitar tuner
Autoscroll
slow
fast
+/-
esc
set tempo
stop
Help us to improve Ultimate-Guitar.com Take our survey!
×
Author
-------------------------------------------------------------------------------
			     Lines Are Faded - Time Again
-------------------------------------------------------------------------------

Tabbed By: Valerie L
e-mail: valerie.louie@yahoo.com
Tuning: standard

Super easy and fun song to play!
Took me like five minutes to learn. :)

Intro
G|----------------------------|
D|-----------------1h2p1------|
A|-2~-----2~-------------2-4--|
E|----------------------------|

chorus "lines are faded.."
G|--------------------------------------|
D|---------22222222---------------------|
A|22222222------------------44-22-44-22-|
E|------------------44444444------------| x2

verse 
G|--------------------------------2p--------|
D|------------------22222222--2h4p---4p2p---|
A|22222222-44444444-----------------------4-|
E|------------------------------------------| x3

G|---------------------------------2p--2h4-|
D|------------------22222222--2h4p---4-----|
A|22222222-44444444------------------------|
E|-----------------------------------------|

chorus x2

verse 
G|--------------------------------2p--------|
D|------------------22222222--2h4p---4p2p---|
A|22222222-44444444-----------------------4-|
E|------------------------------------------| x3

G|---------------------------------2p--2h4-|
D|------------------22222222--2h4p---4-----|
A|22222222-44444444------------------------|
E|-----------------------------------------|

chorus x1

chorus
G|-------------------------------------|
D|---------22222222--------------------|
A|22222222------------------44444444---|
E|------------------44444444-----------|

guitar solo:
G|------------------------------|
D|------------------------------|
A|-----------------2~------2~---|
E|4444-4-0-0000000--------------| x4

G|--------------------------------2p--------|
D|------------------22222222--2h4p---4p2p---|
A|22222222-44444444-----------------------4-|
E|------------------------------------------| 

G|----------------------------|
D|------------------22222222-2|
A|22222222-44444444-----------|
E|----------------------------|

chorus until end
Suggest correction
Give kudos to tab author, rate the tab!
1 2 3 4 5
comments
print report bad tab
1 comment total.
0 reply
chrisjenks 2,712 Aug 21, 2008 01:25 PM

sounds pretty bang on. you've got all the verse fills correct. good job. i have a feeling he plays the fill in the intro an octave higher though...what do you think?

guest
You may want to rate the tab now too:
select rating
Wanna post a correction for this tab? Suggest correction