Oops, an error
Loading. Please wait.

Stories Are True Bass Tab

744 views 1 this week
no commentswrite comment
1 2 3 4 5
please rate
add to favorites
launch autoscroll
font size
0
reset
guitar tuner
Tab Pro tools
  • play this tab
  • loop segment
  • change instrument
  • show fretboard
  • metronome
×
Best way to learn
"Stories Are True"
Autoscroll
slow
fast
+/-
esc
set tempo
stop
my first tab. sounds correct to me. deal with it if it isnt. listen to the song to see 
many times to repeat everything.

intro
G------------------------------|
D------------------------------|
A---5------------2-------------|
E---------3-------------5------|

verse
G------------------------------|
D--------2--3--5--0------------|
A---5--------------------------|
E----------------------7--5----|

chorus
G------------------------------|
D-------2--3--5--9--7--9--7----|
A---5------------------------9-|
E------------------------------|

bass solo
G------------------------------|
D------------------------------|
A---5--------------------------|
E------0--3--2--0--3--2--------|
comments
We did not receive enough feedback on this tab! Please rate:
print report bad tab
1 2 3 4 5
I want to post or [tab]
guest
You may want to rate the tab now too:
select rating
Please do not post tabs as comments. Select "correction" instead!