Oops, an error
Loading. Please wait.

Streetwalker Bass Tab

version 1
version 1

Whole song

Interactive

583 views 1 this week
no commentswrite comment
1 2 3 4 5
please rate
add to favorites
launch autoscroll
font size
0
reset
guitar tuner
Autoscroll
slow
fast
+/-
esc
set tempo
stop
Help us to improve Ultimate-Guitar.com Take our survey!
×
Author
This is a great song have fun with it.

Intro
G--------|
D-2------|
A--5-3-2-|
E--------|

 Verse x7
G---------------------------------------|
D-----------22-3332------232------232---|
A---22-33-55-------52-333---53-222---52-|
E-55------------------------------------|

 Chorus
G----------------------------------------|
D-----------------------22-33-55-33-22---|
A---------55555555-33-55--------------55-|
E-55555555-------------------------------|

G-------------------------------55------|
D-----------------------22-33-55--55-33-|
A---------55555555-33-55----------------|
E-55555555------------------------------|

 Play Verse x4

Last time before chorus play
G-----------------99-1010109----------9109--------9109----|
D-----99-1010-1212----------129-101010----1210-999----129-|
A-1212----------------------------------------------------|
E---------------------------------------------------------|

 Play Chorus

After 2nd Chorus
G----------------------------------------|
D-----------------------22-33-55-33-22---|
A---------55555555-33-55--------------55-|
E-55555555-------------------------------|

 Play Verse x2 Under Solo

Bridge                  Little Walk Bit
G-----------------|-------------------------|
D--3-2-3-2-3-2-3-2|--232----5-3--232----5-3-|
A-3---5---3---5---|-5---5--3-3--5---5--3-3--|
E-----------------|-------------------------|

 Outro play Chorus

I'm happy to say this is very close to what Brian plays.
Tabbed by Rumple Stumpcunt (Bassist of Floggin' The Goods) www.myspace.com/flogginthegoods
Suggest correction
Give kudos to tab author, rate the tab!
1 2 3 4 5
comments
print report bad tab
guest
You may want to rate the tab now too:
select rating
Wanna post a correction for this tab? Suggest correction