Oops, an error
Loading. Please wait.

Once In A While Tab

1,195 views 33 this week
no commentswrite comment
1 2 3 4 5
x 5
add to favorites
launch autoscroll
font size
0
reset
how to read this tab
guitar tuner
×
Best way to learn
"Once In A While"
Autoscroll
slow
fast
+/-
esc
set tempo
stop
Author
Difficulty
[Intro]

e|------1-------------1----------1---------------1------------------------------------|
B|--------1-------------1-1--------1---------------1----------------------------------|
G|----3------------2----------0-------0-------0-------0-------------------------------|
D|---------------0--------------------------------------------------------------------|
A|--1------------------------3---------------3----------------------------------------|
E|------------------------------------------------------------------------------------|

e|------1-------------1----------1------------1-----------------------------------|
B|--------1-------------1-1--------1----------1-----------------------------------|
G|----3------------2----------0-------0-------------------------------------------|
D|---------------0----------------------------------------------------------------|
A|--1------------------------3----------------3-----------------------------------|
E|--------------------------------------------------------------------------------|
Suggest correction
comments
print report bad tab
guest
You may want to rate the tab now too:
select rating
Wanna post a correction for this tab? Suggest correction