Oops, an error
Loading. Please wait.

Bleed Tab

34 views 12 this week
no commentswrite comment
1 2 3 4 5
3 more votes to show rating
add to favorites
launch autoscroll
font size
0
reset
how to read this tab
guitar tuner
Autoscroll
slow
fast
+/-
esc
set tempo
stop
Help us to improve Ultimate-Guitar.com Take our survey!
×
Author
Difficulty
novice
[Solo]
After drop
4x
e|-9-8---------9-----------|-------------------------|
B|---------------10--------|-10-9-------10-7---------|
G|-------------------------|-------------------------|
D|-------------------------|-------------------------|
A|-------------------------|-------------------------|
E|-------------------------|-------------------------|

8x
e|-9-8-9-------9-----------|------9------------------|
B|---------------10--------|-10-9-------10-7---------|
G|-------------------------|-------------------------|
D|-------------------------|-------------------------|
A|-------------------------|-------------------------|
E|-------------------------|-------------------------|

e|-9-8-9--9--9--9--9--9--9-|-9--9--9--9-7-9-9~~~~----|
B|------10-9--7------------|--7--9--10---------------|
G|---------------10-6-8--10|-------------------------|
D|-------------------------|-------------------------|
A|-------------------------|-------------------------|
E|-------------------------|-------------------------|

[Outro]
e|-9-8-9-------9---9-------|------9----------9-------|
B|---------------10--------|-10-9-------10-7---------|
G|-------------------------|-------------------------|
D|-------------------------|-------------------------|
A|-------------------------|-------------------------|
E|-------------------------|-------------------------| 
Suggest correction
Give kudos to tab author, rate the tab!
1 2 3 4 5
comments
print report bad tab
guest
You may want to rate the tab now too:
select rating
Wanna post a correction for this tab? Suggest correction