Oops, an error
Loading. Please wait.

Divine Tab

version 1
version 1

Whole song

Interactive

265 views 1 this week
no commentswrite comment
1 2 3 4 5
please rate
add to favorites
launch autoscroll
font size
0
reset
how to read this tab
guitar tuner
Autoscroll
slow
fast
+/-
esc
set tempo
stop
Help us to improve Ultimate-Guitar.com Take our survey!
×
Author
*******************************************************
* TIMO TOLKKI - DIVINE (From the Album: HYMN TO LIFE) *
*******************************************************
 Music By: Timo Tolkki

Transcribed By: thomas-pet^^

 Normal Tuning!!

                            Chorus (Guitar enters at 0:58)
E------------------------------------0----------0---------0---------------------------|
B-----------|-------------|--------6----------6---------6----------3-2~---------------|
G---Intro---|---Verse-1---|------7----------7---------7----------2----------------7---|
D-----------|-------------|-----------------------------------------------------7-----|
A-----------|-------------|-----------------------------------0~-------------5--------|
E-----------------------------6~--------5~---------4~---------------------------------|

E-----------------------------------------------------------------------------------|
B-5~-------------5~----6---------5~-------------5~----5--------5~------------5~----5|
G-----7--------7-----7---------7-----7--------7-----7--------7----7--------7-----7--|
D-------7----7---------------8---------8----8--------------7--------7----7----------|
A----------5---------------5--------------5--------------5-------------5------------|
E-----------------------------------------------------------------------------------|

                                     Verse 2 (Guitar enters at 1:36)
E-------------------------------------------------------------------------------------|
B--------5~-------------5~----5---|---------5~-------------5~-------------5~----------|
G------7-----7--------7-----7------|-------7-----7--------7-----7--------7-----7------|
D----8---------5----8--------------|-----7---------7----7---------7----8---------8----|
A--5--------------5----------------|---5--------------5--------------5----------------|
E-------------------------------------------------------------------------------------|

E------------------------0~---------------0~------------------------------------------|
B--------5~------------3-----3----------3-----3--------------5~-------------5~--------|
G------7-----7-------5---------5------5---------5----------7-----7--------7-----7-----|
D----8---------8-----------------5----------------5------7---------7----7---------7---|
A--5--------------3----------------3----------------/-5--------------5----------------|
E-------------------------------------------------------------------------------------|

                                                                        Guitar enter
E--------0~---------------0~-----------------3~---------------------------------------|
B------3-----3----------3-----3--------------3~--3-------|------------|---------------|
G----5---------5------5---------5----------0--------0~---|---Chorus---|------------/|-|
D----------------5----------------5------0---------------|------------|------------/|-|
A-3----------------3------------------------------------|------------|---5--5--5--/|--|
E-------------------------------------3----------------------------------5--5--5--/|--|
                                                                         pm.......|

 s at 2:52   Riff 1                                            x4   Outro Solo (with
E-------------------------------------------------------------------------------------|
B----------|------------------------------------------------------|--/17b(18)r17-15---|
G--7-7-----|*-----------------7--5-/-7-----------------7--5-/-7--*|-------------------|
D--7-7-----|*--7--7--7--7--7--7--5-/-7--7--7--7--7--7--7--5-/-7--*|-------------------|
A--5-5----|---5--5--5--5--5--5--3-/-5--5--5--5--5--5--5--3-/-5---|--------------------|
E--5-5--------5--5--5--5--5--5--3-/-5--5--5--5--5--5--5--3-/-5------------------------|
              pm............|          pm.............|

 Riff 1 x6)
E-----/13-12~-------------------------------------------------------------------------|
B-------------13------17-15~--12------/15-15b(17)-r15---18~--17~--/--17b(18)r17-15----|
G-14~------------12~--------------12~-------------------------------------------------|
D-------------------------------------------------------------------------------------|
A-------------------------------------------------------------------------------------|
E-------------------------------------------------------------------------------------|

E-----/13-12~-------------------------------------------------------------------------|
B--------------13------17-15~--12------/15-15b(17)-r15-/20~--18-17-17b(18)r17-15------|
G-14~-------------12~--------------12~--------------------------------------------14--|
D-------------------------------------------------------------------------------------|
A-------------------------------------------------------------------------------------|
E-------------------------------------------------------------------------------------|

                                                                     (with Riff 1 ma
E---/13-12~------------------------------------------------------------------------/|-|
B------------13------17-15~--12------/12-15~--17-18~--18b(20)~-r--|---18~--15---------|
G~--------------12~--------------12~-------------------------------|*----------14~----|
D------------------------------------------------------------------|*-----------------|
A------------------------------------------------------------------|------------------|
E-------------------------------------------------------------------------------------|

 ny times)                                                        x5
E-13-12~----------------------------------------------------------------|
B--------13------17-15~--12------/12-15~--17-18~--18b(20)~-r-18~--------| repeat
G-----------12~--------------12~------------------------------------*---|  and
D-------------------------------------------------------------------*---| fade out
A-----------------------------------------------------------------------|
E-----------------------------------------------------------------------|

----------------------------------------------------------------------------------

=======================
=TABLATURE EXPLANATION=
=======================

A.H. = Artificial Harmonic

pm..| = Palm mute

h = hammer on

p = pull off

/ = slide up

 = slide down

~ = Vibrato

b() = Bend

x = Pick Slide

--------|
--------|
---12---| = Tremolo pick
----/---|
----/---|
----/---|

---.---|
--12---| = Staccato
-------|
-------|
-------|

|     |
|     |
|*   *| = repeat from * to *
|*   *|
|     |
Suggest correction
Give kudos to tab author, rate the tab!
1 2 3 4 5
comments
print report bad tab
guest
You may want to rate the tab now too:
select rating
Please do not post tabs as comments. Select "correction" instead!