Oops, an error
Loading. Please wait.

Father Tab

287 views 1 this week
no commentswrite comment
1 2 3 4 5
please rate
add to favorites
launch autoscroll
font size
0
reset
how to read this tab
guitar tuner
Autoscroll
slow
fast
+/-
esc
set tempo
stop
Help us to improve Ultimate-Guitar.com Take our survey!
×
Contributor
*******************************************************
* TIMO TOLKKI - FATHER (From the Album: HYMN TO LIFE) *
*******************************************************
 Music By: Timo Tolkki

Transcribed By: thomas-pet^^

-----------------------------------------

 Normal Tuning!!
                          Riff 1
E-----------------------------------------------------------------------------------|
B-----------------------|-----------------------------------------------------------|
G--Drum-Intro-(10-sec)--|-----------------------------------------------------------|
D-----------------------|---5~----5~---5~---5~---3~---3~--/-5~---5~---5~---5~---5~--|
A-----------------------|---5~----5~---5~---5~---3~---3~--/-5~---5~---5~---5~---5~--|
E---------------------------3~----3~---3~---3~---1~---1~--/-3~---3~---3----3~---3~--|

                                                (1:35)
E-------------------------------------------------------------------------------------|
B-------------------------------|-------------|---Chorus---|--------------------------|
G-------------------------------|---Verse-1---|----with----|---Verse-2-with-pick-sli--|
D--5~---3~---2~---5~---5~-----|-(no-guitar)-|---Riff-1---|----------------------------|
A--5~---3~---2~---5~---5~-----|-------------|------------|----------------------------|
E--3~--~1~---0~---3~---3~-------------------------------------------------------------|

                Chorus (2) at 2:58
E-------------------------------------------------------------------------------------|
B-------------|-----------------------------------------------------------------------|
Gde-effects---|-----------------------------------------------------------------------|
D-------------|---5~---5~---5~---5~---3~---2~--/5~---5~---5~---5~---5~---5~---3~------|
A-------------|---5~---5~---5~---5~---3~---2~--/5~---5~---5~---5~---5~---5~---3~------|
E-----------------3~---3~---3~---3~---1~---0~--/3~---3~---3~---3~---3~---3~---1~------|

                      Interlude (flute arranged for guitar at 4:14)
E-----------------------------13--11~------------------------------------13--11~------|
B-------------------|------------------13--11--10~--10-11-13-10-------------------13--|
G-------------------|---/12~------------------------------------12~--12---------------|
D-2~---5~---5~-----|------------------------------------------------------------------|
A-2~---5~---5~-----|------------------------------------------------------------------|
E-0~---3~---3~------------------------------------------------------------------------|

E----------/13--15-------/15-13-11~----------------------------------13--11~--------|
B-11--10~-----------15~--------------13--11--10~--11--13-10-------------------13--11|
G-----------------------------------------------------------12~--12-----------------|
D-----------------------------------------------------------------------------------|
A-----------------------------------------------------------------------------------|
E-----------------------------------------------------------------------------------|

                                                                   Strings Solo arra
E-----/13--15------------13--11~------------------------------------18~--17~--15-/17--|
B-10~----------15~----------------13--11--10~--10-11-13-10-------|--------------------|
G-------------------12------------------------------------12~~--|---------------------|
D----------------------------------------------------------------|--------------------|
A----------------------------------------------------------------|--------------------|
E-------------------------------------------------------------------------------------|

 nged for Guitar:      Two Guitars..................................................
E~-15--13~-------/15~--/17--17~----15~--/17~---15---13~---------/18~--17~---15-/-17~|
B----------------------/18--18~----16~--/18~---16---15~---15~---/20~--18~---16-/-18~|
G-----------15~-------------------------------------------15~-----------------------|
D-----------------------------------------------------------------------------------|
A-----------------------------------------------------------------------------------|
E-----------------------------------------------------------------------------------|

 ..............|  fade out
E-15--13~--------/18~--17~---15-/17~--15--13~--------------|
B-16--15~--15~---------------------------------------------|
G----------15~---------------------------------15~---------| end
D----------------------------------------------------------|
A----------------------------------------------------------|
E----------------------------------------------------------|

----------------------------------------------------------------------------------

=======================
=TABLATURE EXPLANATION=
=======================

A.H. = Artificial Harmonic

pm..| = Palm mute

h = hammer on

p = pull off

/ = slide up

 = slide down

~ = Vibrato

b() = Bend

x = Pick Slide

--------|
--------|
---12---| = Tremolo pick
----/---|
----/---|
----/---|

---.---|
--12---| = Staccato
-------|
-------|
-------|

|     |
|     |
|*   *| = repeat from * to *
|*   *|
|     |
Suggest correction new What's this?
You can suggest a correction to this tab. Community and Mods will review your correction and vote to approve or reject it.
comments
We did not receive enough feedback on this tab! Please rate:
print report bad tab
1 2 3 4 5
guest
You may want to rate the tab now too:
select rating
Please do not post tabs as comments. Select "correction" instead!