Oops, an error
Loading. Please wait.

Its Xmas Morning Tab

262 views 1 this week
no commentswrite comment
1 2 3 4 5
please rate
add to favorites
launch autoscroll
font size
0
reset
how to read this tab
guitar tuner
Tab Pro tools
  • play this tab
  • loop segment
  • change instrument
  • show fretboard
  • metronome
Autoscroll
slow
fast
+/-
esc
set tempo
stop
Contributor
******************************************************************
* TIMO TOLKKI - IT'S XMAS MORNING (From the Album: HYMN TO LIFE) *
******************************************************************
 Music By: Timo Tolkki

Transcribed By: thomas-pet^^

 Normal Tuning!!

  Verse 1 (Clean Guitar)                                      Chorus
E----------------1~---1)~-----3)~--------------1)~----1)~---------------------------|
B----------------1~---3(~-----3(~--------------1(~----3(~---|-----------------------|
G---2~---0~------2~---2)~-----4)~----2~---0~---2)~----2)~---|--/5~---------------2~-|
D-------------3~------0(~-----5(~--------------3(~----0(~---|----------5------------|
A-----------------------------------------------------------|------------3~---------|
E-----------------------------------------------------------------------------------|

E------0-----------------------8)~----------5---3(~---------------------------------|
B----1--------3----------1~----8(~--------5-----3)~-------|-------------------------|
G--2------------0~-----0-------9)~------5-------4(~-------|---Verse-2-(Keyboards)---|
D-------------------------------------7---------5)~-------|-------------------------|
A--------------------3-------------------------------0~---|-------------------------|
E-----------------------------(6)---------------------------------------------------|

                           Dist.Guitar enters at (2:27)
E-------------------------------------------------------------------------------------|
B------------------------|------------------------------------------------------------|
G---Chorus-(No-Guitar)---|------------------------------------------------------------|
D------------------------|---7~---5-5--/-7~------7----5-5--/-7~-------3~---2-2--------|
A------------------------|---7~---5-5--/-7~------7----5-5--/-7~-------3~---2-2--------|
E----------------------------5~---3-3--/-5~------5----3-3--/-5~-------1~-~-0-0--------|

                                      Guitar Solo (with Wah Wah)
E-------------------------------------------------------------------------------------|
B-----------------------------------|--------5-6-8-/8~-6-h8p6-5-h6p5------------------|
G-----------------------------------|---/5~--------------------------7--5~--5-5--7-9--|
D--/-3~------3~---2-2--/-3~------|----------------------------------------------------|
A--/-3~------3~---2-2--/-3~------|----------------------------------------------------|
E--/-1~------1~---0-0--/-1~-----------------------------------------------------------|

E-------------------------------------------------------------------------------------|
B-------------------------------------------------------------------------------------|
G-/10--9-h10p9-7-h9p7------------------7---------------------9~-h10p9p7~----------/---|
D---------------------10-9-7~--7-7--10---10------10--12~--10--------------10-10~------|
A-------------------------------------------10~---------------------------------------|
E-------------------------------------------------------------------------------------|

E----------------20b(22)~-r20-19------17~--12-13-15-15~--13-12-------------------13---|
B----17-18-20---------------------21-----------------------------12--13~-------13-----|
G-17----------17------------------------------------------------------------14--------|
D------------------------------------------------------------------------15-----------|
A-------------------------------------------------------------------------------------|
E-------------------------------------------------------------------------------------|

E-15-17-12~-----------------------17~-15-15~--h17p15p13-------------------------------|
B-------------13-------------15-17------------------------17-15-13--------------------|
G----------------12~----/14---------------------------------------16-14-12------------|
D---------------------------------------------------------------------------15-14-12--|
A-------------------------------------------------------------------------------------|
E-------------------------------------------------------------------------------------|

                  Verse 3 (Acoustic Guitar)
E----------------------------------------------------------------------1~-------------|
B----13~~------|---------1--------1--------1~-----------1~----------3-----------------|
G---------------|-------0--------0--------2------------2-----------2-------------4~---|
D10------------|-----2--------2--------2---------2-/3-------2~--0-------------5-------|
A---------------|---3-------2---------------------------------------------------------|
comments
We did not receive enough feedback on this tab! Please rate:
print report bad tab
1 2 3 4 5
I want to post or [tab]
guest
You may want to rate the tab now too:
select rating
Please do not post tabs as comments. Select "correction" instead!