Oops, an error
Loading. Please wait.

Key To The Universe Tab

version 1
version 1

Intro

Interactive

2,121 views 1 this week
1 commentread comment
1 2 3 4 5
2 more votes to show rating
add to favorites
launch autoscroll
font size
0
reset
how to read this tab
guitar tuner
Autoscroll
slow
fast
+/-
esc
set tempo
stop
Help us to improve Ultimate-Guitar.com Take our survey!
×
Author
Difficulty
intermediate
Timo Tolkki is the guitarist in Stratovarius. He has made 2 solo albums, and he is 
on his third. So hopefully you won't reject this tab.

To see that I'm not lying:
http://www.stratovarius.com/index2.php?section=bio&PHPSESSID=ddf17e36886e4bd7c19c297259b4ba98

http://www.tolkki.com/forum/


Band:  (Timo Tolkki)
Album: (Hymn To Life 2002)
Song:  (Key To The Universe)

Transcribed By: (Thomas Pettersem)
Email:          (Thomas-pet@hotmail.com)


6th : D#
5th : G#
4th : C#
3rd : F#
2nd : A#
1st : D#

~:vibrato.
h:hammer on.
p:pull of.
s:slide.
+:pedal towards max.
=:pedal towards min.

The intro:

|--+-----+--=--+-----=-------------+------+-----+-----------+--+-----+|
|-11-13-14-14-13h14p13-11-+---=--+-11-13-14-14-16-14-16-14-18-19-18-16|
|-------------------------13-11-10------------------------------------|
|---------------------------------------------------------------------|
|---------------------------------------------------------------------|
|---------------------------------------------------------------------|

|--+------+--=--+-----=-----------------------------------------------|
|--11-13-14-14-13h14p13-11-+--=--+-------+----------------------------|
|--------------------------13-11-15-=--15--+--=--+=------------------+|
|-----------------------------------15----18-15-13--=--------+---15-13|
|--------------------------------------------------13-13-15-16--------|
|---------------------------------------------------------------------|

|---------------------------------------------------------------------|
|---------------------------------------------------------------------|
|-----------+---------------------------------------------------------|
|--16-15-16-----------------------------------------------------------|
|---------------------------------------------------------------------|
|---------------------------------------------------------------------|


The solo:
                                   +  = +     +  +
|---------------------------------13-11-9---=-9-11h13h14s16-16-16-----|
|--+-----+------+--=--+-=-+----------------11-------------------------|
|--6-5-6-8-6-8-10-11-10-8-6-------------------------------------------|
|---------------------------------------------------------------------|
|---------------------------------------------------------------------|
|---------------------------------------------------------------------|

|--14-13-14-16-14-13-----------------------------+=-=-+---------------|
|--------------------14-13-11-------------------13-14-13s11-----------|
|-----------------------------13--------------------------------------|
|--------------------------------15-13-11-----------------------------|
|-----------------------------------------15-13-----------------------|
|---------------------------------------------------------------------|

    +
|--13-16-14~-13----13h14h16s18-18-16-16-16h18h20s21-20-18-------------|
|---------------14----------------------------------------------------|
|---------------------------------------------------------------------|
|---------------------------------------------------------------------|
|---------------------------------------------------------------------|
|---------------------------------------------------------------------|

                                   +
|--21-21-20-18-+------------------18-20h21p20p18----------------------|
|--------------18--+--------------------------------------------------|
|-----------------18p17p15h17h18--------------------------------------|
|---------------------------------------------------------------------|
|---------------------------------------------------------------------|
|---------------------------------------------------------------------|

|------------------------------------------------18h20h21-------------|
|--+---------14h16h18s19s21----------16h18h19-21----------------------|
|--13h15h17-----------------15h17h18----------------------------------|
|---------------------------------------------------------------------|
|---------------------------------------------------------------------|
|---------------------------------------------------------------------|
Suggest correction
Give kudos to tab author, rate the tab!
1 2 3 4 5
comments
print report bad tab
1 comment total.
0 reply
TimoTolkki 10 Dec 11, 2006 05:48 PM

Very nice. is there any way you can put this on guitar pro?

guest
You may want to rate the tab now too:
select rating
Wanna post a correction for this tab? Suggest correction