Oops, an error
Loading. Please wait.

Lord Of The Rings Tab

version 1
version 1

Intro

Interactive

5,403 views 6 this week
6 commentsread comments
1 2 3 4 5
worth learning
x 5
add to favorites
launch autoscroll
font size
0
reset
how to read this tab
guitar tuner
Autoscroll
slow
fast
+/-
esc
set tempo
stop
Help us to improve Ultimate-Guitar.com Take our survey!
×
Contributor
Difficulty
Rianne 39
novice
                   Lord Of The Rings                                 


                   Timo Tolkki
Acoustic Right



              E  E  E  E  E  E  E  E     E  E  E  E  E  E  E  E   
D#||-------|--------------0--L--L--L--|--L--L--L--L--L--0--L--L--|
A#||-------|-----------0--L--0--L--L--|--L--L--L--0--1--L--0--1--|
F#||-------|--------2--L--L--L--2--L--|--L--L--2--L--L--L--L--L--|
C#||-------|-----2--L--L--L--L--L--2--|--L--2--L--L--L--L--L--L--|
G#||-------|--0--L--L--L--L--L--L--L--|--0--L--L--L--L--L--L--L--|
D#||-------|--------------------------|--------------------------|


  E  E  E  E  E  E  E  E     E  E  E  E  E  E  E  E   
--------------0--L--L--L--|--L--L--L--L--L--0--L--L--|
-----------0--L--0--L--L--|--L--L--L--0--1--L--0--1--|
--------2--L--L--L--2--L--|--L--L--2--L--L--L--L--L--|
-----2--L--L--L--L--L--2--|--L--2--L--L--L--L--L--L--|
--0--L--L--L--L--L--L--L--|--0--L--L--L--L--L--L--L--|
--------------------------|--------------------------|


  E  E  E  E  E  E  E  E     E  E  E  E  E  E  E  E   
--------------0--L--L--L--|--L--L--L--L--L--0--L--L--|
-----------0--L--0--L--L--|--L--L--L--0--1--L--0--1--|
--------2--L--L--L--2--L--|--L--L--2--L--L--L--L--L--|
-----2--L--L--L--L--L--2--|--L--2--L--L--L--L--L--L--|
--0--L--L--L--L--L--L--L--|--0--L--L--L--L--L--L--L--|
--------------------------|--------------------------|


  E  E  E  E  E  E  E  E     E  E  E  E  E  E  E  E   
--------------0--L--L--L--|--L--L--L--L--L--0--L--L--|
-----------0--L--0--L--L--|--L--L--L--0--1--L--0--1--|
--------2--L--L--L--2--L--|--L--L--2--L--L--L--L--L--|
-----2--L--L--L--L--L--2--|--L--2--L--L--L--L--L--L--|
--0--L--L--L--L--L--L--L--|--0--L--L--L--L--L--L--L--|
--------------------------|--------------------------|


  E  E  E  E  E  E  E  E     E  E  E  E  E  E  E  E   
--L--L--L--0--1--L--L-----|-----------0--1--L--L--L--|
--L--L--3--L--L--3--------|--------3--L--L--3--L--L--|
--L--2--L--L--L--L--2--L--|--L--2--L--L--L--L--2--L--|
--0--L--L--L--L--L--L-----|--------------------------|
--L--L--L--L--L--L--L-----|--3--L--L--L--L--L--L--L--|
--------------------------|--------------------------|


  E  E  E  E  E  E  E  E     E  E  E  E  E  E  E  E   
--L--L--L--0--1--L--L-----|-----------0--L--L--L--4--|
--L--L--3--L--L--3--L-----|--------------------0--L--|
--L--2--L--L--L--L--2--L--|--L--L--4--L--L--1--L--L--|
--------------------------|-----2--L--L--2--L--L--L--|
--2--L--L--L--L--L--L-----|--------------------------|
--------------------------|--0--L--L--L--L--L--L--L--|


  E  E  E  E  E  E  E  E     E  E  E  E  E  E  E  E   
--L--L--L--L--L--0--L--L--|--L--L--L--L--3--L--L--L--|
--L--L--L--0--1--L--0--1--|--L--L--L--L--L--0--L--L--|
--L--L--2--L--L--L--L--L--|--L--L--L--0--L--L--0--L--|
--L--2--L--L--L--L--L--L--|--L--L--0--L--L--L--L--0--|
--0--L--L--L--L--L--L--L--|--L--2--L--L--L--L--L--L--|
--------------------------|--3--L--L--L--L--L--L--L--|


  E  E  E  E  E  E  E  E     E  E  E  E  E  E  E  E   
--L--L--L--L--0--L--L--L--|--L--L--L--L--3--L--L--L--|
--L--L--L--1--L--1--L--L--|--L--L--L--2--L--2--L--L--|
--L--L--0--L--L--L--0--L--|--L--L--2--L--L--L--2--L--|
--L--2--L--L--L--L--L--2--|--L--2--L--L--L--L--L--L--|
--3--L--L--L--L--L--L--L--|--4--L--L--L--L--L--L--L--|
--L--L--L--L--L--L--L--L--|--L--L--L--L--L--L--L--L--|


  E  E  E  E  E  E  E  E     E  E  E  E  E  E  E  E   
--L--L--L--1--L--L--L--1--|--L--L--L--2--L--L--L--2--|
--L--L--3--L--L--L--3--L--|--L--1--L--L--L--L--L--L--|
--L--2--L--L--L--2--L--L--|--L--L--4--L--L--L--4--L--|
--0--L--L--L--3--L--L--L--|--L--L--L--L--L--4--L--L--|
--L--L--L--L--L--L--L--L--|--2--L--L--L--2--L--L--L--|
--L--L--L--L--L--L--L--L--|--L--L--L--L--L--L--L--L--|


  E  E  E  E  E  E  E  E     E  E  E  E  E  E  E  E   
--L--L--L--L--0--L--L--L--|--L--L--L--L--0--L--L--L--|
--L--L--L--1--L--1--L--L--|--L--L--L--1--L--1--------|
--L--L--2--L--L--L--2--L--|--L--L--2--L--L--L--2--L--|
--L--2--L--L--L--L--L--2--|--L--2--L--L--L--------2--|
--L--L--L--L--L--L--L--L--|--------------------------|
--0--L--L--L--L--L--L--L--|--0--L--L--L--L--L--L--L--|


  E  E  E  E  E  E  E  E     E  E  E  E  E  E  Q       E  E  E  E  E  E  E  E   
--L--L--------0--L--L-----|--------------0--L--L----|--1-----0-----0-----0-----|
-----------0--L--0--L-----|-----------0-------------|-----3-----1--------------|
--L--L--1--L--L--L--1-----|--------1--L-------------|-----------------4-----2--|
--L--2--L--L--L--L--L--2--|--L--2--L--L-------------|--------------------------|
--------------------------|-------------------------|--------------------------|
--0--L--L--L--L--L--L--L--|--0--L--L--L--L--L--L----|--------------------------|


  E  E  E  E  E  E  E  E     E  E  E  E  E  E  E  E   
--0-----0-----0-----0-----|--0-----0-----0-----0-----|
--------------------------|--------------------------|
-----1--------------------|--------------------------|
-----------3-----2-----0--|-----3-----2-----0--------|
--------------------------|-----------------------3--|
--------------------------|--------------------------|


  E  E  E  E  E  E  E  E     E  E  E  E  E  E  E  E   
--0-----0-----0-----0-----|--0-----0-----0-----0-----|
--------------------------|--------------------------|
--------------------------|--------------------------|
-----2-----0--------------|-----0--------------------|
-----------------3-----2--|-----------3-----2-----0--|
--------------------------|--------------------------|


  E  E  E  E  E  E  E  E     E  E  E  E  E  E  E  E     E  Q    Q    E  E  E   
--0-----0-----0-----0-----|--0-----0-----0-----0-----|--0--L----L----L--L--L--|
--------------------------|--------------------------|---------------------L--|
--------------------------|--------------------------|------------------------|
--------------------------|--------------------------|------------------------|
-----3-----2-----0--------|-----2-----0--------------|------------------------|
-----------------------4--|-----------------4-----1--|------------------------|


-----|-------|-------|-------|-------|-------|-------|-------|-------|-------|
-----|-------|-------|-------|-------|-------|-------|-------|-------|-------|
-----|-------|-------|-------|-------|-------|-------|-------|-------|-------|
-----|-------|-------|-------|-------|-------|-------|-------|-------|-------|
-----|-------|-------|-------|-------|-------|-------|-------|-------|-------|
-----|-------|-------|-------|-------|-------|-------|-------|-------|-------|


-------|-------|-------|-------|-------|-------|-------|-------|-------|-------|
-------|-------|-------|-------|-------|-------|-------|-------|-------|-------|
-------|-------|-------|-------|-------|-------|-------|-------|-------|-------|
-------|-------|-------|-------|-------|-------|-------|-------|-------|-------|
-------|-------|-------|-------|-------|-------|-------|-------|-------|-------|
-------|-------|-------|-------|-------|-------|-------|-------|-------|-------|


-------|-------|-------|-------|-------|-------|-------|-------|-------|-------|
-------|-------|-------|-------|-------|-------|-------|-------|-------|-------|
-------|-------|-------|-------|-------|-------|-------|-------|-------|-------|
-------|-------|-------|-------|-------|-------|-------|-------|-------|-------|
-------|-------|-------|-------|-------|-------|-------|-------|-------|-------|
-------|-------|-------|-------|-------|-------|-------|-------|-------|-------|


-------|-------|-------|-------|-------|-------|-------|-------|-------|-------|
-------|-------|-------|-------|-------|-------|-------|-------|-------|-------|
-------|-------|-------|-------|-------|-------|-------|-------|-------|-------|
-------|-------|-------|-------|-------|-------|-------|-------|-------|-------|
-------|-------|-------|-------|-------|-------|-------|-------|-------|-------|
-------|-------|-------|-------|-------|-------|-------|-------|-------|-------|


-------|-------|-------|-------|-------|-------|-------|-------|-------|-------|
-------|-------|-------|-------|-------|-------|-------|-------|-------|-------|
-------|-------|-------|-------|-------|-------|-------|-------|-------|-------|
-------|-------|-------|-------|-------|-------|-------|-------|-------|-------|
-------|-------|-------|-------|-------|-------|-------|-------|-------|-------|
-------|-------|-------|-------|-------|-------|-------|-------|-------|-------|


-------|-------|-------|-------|-------|-------|-------|-------|-------|-------|
-------|-------|-------|-------|-------|-------|-------|-------|-------|-------|
-------|-------|-------|-------|-------|-------|-------|-------|-------|-------|
-------|-------|-------|-------|-------|-------|-------|-------|-------|-------|
-------|-------|-------|-------|-------|-------|-------|-------|-------|-------|
-------|-------|-------|-------|-------|-------|-------|-------|-------|-------|


                  E  E  E  E  E  E  E  E     E  E  E  E  E  E  E  E   
-------|-------|--------------------------|--------------------------|
-------|-------|--------------------6--L--|--L--L--L--L--------------|
-------|-------|--------------7--9--------|--------------0--2--4--L--|
-------|-------|--------------------------|--------------------------|
-------|-------|--------------------------|--------------------------|
-------|-------|--------------------------|--------------------------|


  E  E  E  E  E  E  E  E     E  E  E  E  E  E  E  E   
--------------------------|--------------------------|
--------------------5--L--|--L--L--L--L--------------|
--L--L--L--L--5--7--------|--------------------2--L--|
--------------------------|--------------3--5--------|
--------------------------|--------------------------|
--------------------------|--------------------------|


  E  E  E  E  E  E  E  E     E  E  E  E  E  E  E  E   
--------------------------|--------------------------|
--------------------3--L--|--L--L--L--L--------------|
--L--L--L--L--4--5--------|--------------------1--L--|
--------------------------|--------------2--4--------|
--------------------------|--------------------------|
--------------------------|--------------------------|


  E  E  E  E  E  E  E  E     E  E  E  E  E  E  E  E   
--------------------------|--------------------------|
--------------1--0--------|--------------5--3--2--L--|
--L--L--L--L--------2--L--|--L--L--L--L--------------|
--------------------------|--------------------------|
--------------------------|--------------------------|
--------------------------|--------------------------|


  E  E  E  E  E  E  E  E     E  E  E  E  E  E  E  E   
--5-----------------------|--------------------------|
-----5--6--L--L--L--L--L--|--3--1--0--L--L--L--L--L--|
--------------------------|--------------------------|
--------------------------|--------------------------|
--------------------------|--------------------------|
--------------------------|--------------------------|


  E  E  E  E  E  E  E  E     E  E  E  E  E  E  E  E   
--3-----------------------|--------------------------|
-----3--5--L--L--L--L--L--|--1--0--------------------|
--------------------------|--------2--L--L--L--L--L--|
--------------------------|--------------------------|
--------------------------|--------------------------|
--------------------------|--------------------------|


  E  E  E  E  E  E  E  E     E  E  E  E  E  E  E  E     E  E  H.             
--1--0--------------------|--------------------------|---------------------||
--------4--L--L--L--1--L--|--L--L--0--L--------------|--------0------------||
--------------------------|--------------2--L--1--L--|--2--L---------------||
--------------------------|--------------------------|---------------------||
--------------------------|--------------------------|---------------------||
--------------------------|--------------------------|---------------------||




Duration Legend
---------------
W - whole
H - half
Q - quarter
E - 8th
S - 16th
T - 32nd
X - 64th
. - note dotted
|-n-|  - n-tuplets


Tablature Legend
----------------
L - tied note
x - dead note
g - grace note
(n) - ghost note
> - accentuded note
NH - natural harmonic
AH - artificial harmonic
TH - tapped harmonic
SH - semi harmonic
PH - pitch harmonic
h - hammer on
p - pull off
b - bend
br - bendRelease
pb - preBend
pbr - preBendRelease
brb - bendReleaseBend
\n/ - tremolo bar dip
\n - tremolo bar dive
-/n - tremolo bar Release up
/n\ - tremolo bar inverted dip
/n - tremolo bar return
-\n - tremolo bar Release down
S - shift slide
s - legato slide
/ -  slide into from below or out of upwards
\ -  slide into from above or out of downwards
~ - vibrato
W - wide vibrato
tr - trill
TP - tremolo picking
T - tapping
S - slap
P - pop
< - fade in
^ - brush up
v - brush down
Suggest correction new What's this?
You can suggest a correction to this tab. Community and Mods will review your correction and vote to approve or reject it.
comments
print report bad tab
6 comments total. Showing first comments.
0 reply
ilir 939 wrote on December 21 2006, 06:24 pm

i rate with 5..:P
but i like to tell me what its that "L"
i dont see that in any tabb:P

0 reply
LPShredder 113 wrote on January 10 2007, 08:58 pm

very hard to read with all the L's (??) have NO clue what lord of the rings song that is.

0 reply
st.stephen 219 wrote on May 4 2007, 01:15 pm

Wtf is up with the L's?

guest
You may want to rate the tab now too:
select rating
Please do not post tabs as comments. Select "correction" instead!