Oops, an error
Loading. Please wait.

Norhtern Lights Tab

318 views 1 this week
no commentswrite comment
1 2 3 4 5
please rate
add to favorites
launch autoscroll
font size
0
reset
how to read this tab
guitar tuner
Tab Pro tools
  • play this tab
  • loop segment
  • change instrument
  • show fretboard
  • metronome
×
Best way to learn
"Norhtern Lights"
Autoscroll
slow
fast
+/-
esc
set tempo
stop
Contributor
************************************************************************
* TIMO TOLKKI - NORHTERN LIGHTS (From Classical Variations And Themes) *
************************************************************************
 Music By: Timo Tolkki

Transcribed By: thomas-pet^^

 Tune down 1/2 step!

E---------------------------------------------------------------------------------------|
B---------------------------------------------------------------------------------------|
G*--------------------------------------------------------------------------------------|
D*--------------------------------------------------------------------------------------|
A--7--7--------7--7--------7--7--------------5h7h8--7--7--------2--2--------2--2--------|
E--5--5-5-5-5--5--5-5-5-5--5--5-5-5-5--/7--8--------------0-0-0--0--0-0-0-0--0--0-0-0---|
       pm....|     pm....|     pm....|                   pm....|     pm....|     pm...

E---------------------------------------------------------------------------------------|
B---------------------------------------------------------------------------------------|
G---------------------------------------------------------------------------------------|
D------------------------------------------------------------------------------9--9-----|
A----2------------7--7--------7--7--------7--7--------------5h7h8-7--7--------7--7------|
E-0--0-/-4--4~~---5--5-5-5-5--5--5-5-5-5--5--5-5-5-5--/7--8-------------0-0-0-------0---|
 ..|                  pm....|     pm....|     pm....|                  pm....|     pm.

E---------------------------------------------------------------------------------------|
B---------------------------------------------------------------------------------------|
G---------------------------------------------------------------------------------------|
D------9--9--------9--9--9---7--7--------7--7--------7--7--------7--9-10---9--9---------|
A------7--7--------7--7--7---5--5-5-5-5--5--5-5-5-5--5--5-5-5-5--5--7--8---7--7-7-7-----|
E-0-0-------0-0-0-----------------------------------------------------------------------|
 ....|     pm....|                pm....|     pm....|     pm....|                pm...

E---------------------------------------------------------------------------------------|
B---------------------------------------------------------------------------------------|
G---------------------------------------------------------------------------------------|
D----9--9--------9--9--------9--10--9---7--7--------7--7---------7--7--------7--9-10----|
A-7--7--7-7-7-7--7--7-7-7-7--7---8--7---5--5-5-5-5--5--5-5-5-5---5--5-5-5-5--5--7--8----|
E---------------------------------------------------------------------------------------|
 ..|     pm....|     pm....|                 pm....|     pm....|      pm....|

                                                   x2   Guitar Solo
E-------------------------------------------------------/15b(17)~~---------r-15~~-------|
B-----------------------------------------------------|---------------------------------|
G----------------------------------------------------*|---------------------------------|
D--9--9--------9--9--------9--9---------------------*|----------------------------------|
A--7--7-7-7-7--7--7-7-7-7--7--7-7-7-7--7h8p7p5-------|---7~~----------------------------|
E-----------------------------------------------8p7-------5~~---------------------------|
        pm....|     pm....|     pm....|

E-13-12b(13)r12~~~-13-12~--10---------------------------------------------------------|
B-----------------------------13-12~--10-----------------------------/10~--12-13-12-10|
G----------------------------------------12-10-9b(10)-r9~~--7-------------------------|
D-------------------------------------------------------------10-9-7------------------|
A-------------------------------------------------------------------------------------|
E-------------------------------------------------------------------------------------|

E---------------------10-12-13-12-10----------------10-12-13-12-10-13-12-10-------------|
B9/10-12-13-10-12-13----------------13-12-10-12-13-------------------------13-12-10-1---|
G---------------------------------------------------------------------------------------|
D---------------------------------------------------------------------------------------|
A---------------------------------------------------------------------------------------|
E---------------------------------------------------------------------------------------|

E-----10-12-13-12-10--------------------------------------------------------------------|
B2-13----------------13-12-10-12-13-12-10---------------10-12-13-12-13-12-10------------|
G-----------------------------------------13-10-9-10-13----------------------13-10-9----|
D---------------------------------------------------------------------------------------|
A---------------------------------------------------------------------------------------|
E---------------------------------------------------------------------------------------|

E---------------------------------------12--13--15--17--19--20--22--22b(24)~--r22~~~--|
B---------------------------12--13--15---/---/---/---/---/---/---/--------------------|
G----------/9~--10--12--14---/---/---/---/---/---/---/---/---/---/--------------------|
D-12-10-9--------/---/---/---/---/---/---/---/---/---/---/---/---/--------------------|
A----------------/---/---/---/---/---/------------------------------------------------|
E----------------/---/---/------------------------------------------------------------|

E-20-19-19-b(20)~-r19~--20-19-1716/17----------16-17-19/2019-17-19-16----------16-17----|
B--.--.--------------------------------18-17-18-------------------------18-17-18--------|
G---------------------------------------------------------------------------------------|
D---------------------------------------------------------------------------------------|
A---------------------------------------------------------------------------------------|
E---------------------------------------------------------------------------------------|

E-19/2019-1716/17-16--------------------------------------------------------------------|
B----------------------18-17-15----------15-17-18-1715/17-15----------------------------|
G-------------------------------17-16-17----------------------17-16-14------------------|
D----------------------------------------------------------------------18-15-14-15-18---|
A---------------------------------------------------------------------------------------|
E---------------------------------------------------------------------------------------|

E---------------------------------------------------------------------------------------|
B---------------------------------------------------------------------------------------|
G-14-16-17-1614/16-14----------------14-16-17-1614/16-14--------------------------------|
D----------------------18-15-14-15-18----------------------18-15-14----------------14---|
A-------------------------------------------------------------------17-15-14-15-17------|
E---------------------------------------------------------------------------------------|

E---------------------------------------------------------------------------------------|
B---------------------------------------------------------------------------------------|
G---------------------------------------------------------------------------------------|
D-15-14-12-----------------------------------------12-14-15-1412/14-12------------------|
A----------15-14-12-----------------------12-14-15----------------------15-14-12-14-15--|
E-------------------15-13-12~~---12-13-15-----------------------------------------------|

E-------------------------------------------------------------------------------------|
B-------------------------------------------------------------13-15-17-13-15-17-b(18)~|
G-------------------13-14-13----------------13-14-16-13-14-16-------------------------|
D-12-14-15-12-14-15----------15-14-12-14-15-------------------------------------------|
A-------------------------------------------------------------------------------------|
E-------------------------------------------------------------------------------------|

E-------------------------------------------------------------------------------------|
B--r17~--15-13-12-12b(13)--r12~--10---------------------------------------------------|
G------------------------------------/12--9--7----------------------------------------|
D----------------------------------------------10-9~--7-9-10-9h10p9p7-----------------|
A---------------------------------------------------------------------10p8p7h8p7h8h10-|
E-------------------------------------------------------------------------------------|

E---------------------------------------------------------------------------------------|
B---------------------------------------------------------------------------------------|
G---------------------------------------------------------------------------------------|
D-7h9h10p9p7--------------------------little--------------------------------------------|
A------------10p8p7------------A.H.---T.bar-dive----------------------------------------|
E-------------------10p8p7-5~-(5)~--\\----////---\\---////---\\---////---\\-------------|

E------------------|
B------------------|
G------------------| end
D------------------|
A------------------|
E--////--\\--------|

-----------------------------------------------------------------------------------------

=======================
=TABLATURE EXPLANATION=
=======================

A.H. = Artificial Harmonic

<12> = Natural Harmonic

pm..| = Palm mute

h = hammer on

p = pull off

/ = slide up

 = slide down

~ = Vibrato

b() = Bend

x = Pick Slide

--------|
--------|
---12---| = Tremolo pick
----/---|
----/---|
----/---|

---.---|
--12---| = Staccato
-------|
-------|
-------|

|     |
|     |
|*   *| = repeat from * to *
|*   *|
|     |
comments
We did not receive enough feedback on this tab! Please rate:
print report bad tab
1 2 3 4 5
I want to post or [tab]
guest
You may want to rate the tab now too:
select rating
Please do not post tabs as comments. Select "correction" instead!