Oops, an error
Loading. Please wait.

Now I Understand Tab

version 1
version 1

Whole song

Interactive

400 views 1 this week
no commentswrite comment
1 2 3 4 5
please rate
add to favorites
launch autoscroll
font size
0
reset
how to read this tab
guitar tuner
Autoscroll
slow
fast
+/-
esc
set tempo
stop
Help us to improve Ultimate-Guitar.com Take our survey!
×
Author
*****************************************************************
* TIMO TOLKKI - NOW I UNDERSTAND (From the Album: HYMN TO LIFE) *
*****************************************************************
 Music and Words By: Timo Tolkki

Transcribed By: thomas-pet^^

 Normal Tuning!!

  Intro (Gtr.1)                                                       x2    Intro (G
E-------------------------------------------------------------------------------------|
B----------10-8-------8-6------6-3------3-1------1-p0------------------|--------1-----|
G*-------9------9----------7---------4---------2---------0---0-0h2--2~---*|*-------2--|
D*----10----------10---------7---------5---------3---------2--------2~---*|*-------2--|
A--12---------------------------------------------------------------0~----|---0-0--0--|
E-------------------------------------------------------------------------------------|
                                                                             pm..|

 tr.2)                                                                x2    Verse 1
E------------------------------------------------------------------------||-----------|
B-1--------5-5--------6-6------------------------------------------1~----||-----------|
G-2--------5-5--------7-7--------4-4--------2-2--------0-0---------2~---*||-------2---|
D-2--------5-5--------7-7--------5-5--------3-3--------2-2---------2~---*||-----2-----|
A-0--/3-3--3-3--/5-5--5-5--------5-5--------3-3--------2-2--/-0-0--0~----||---0-------|
E--------------------------3-3--3-3--1-1--1-1-----------------------------------------|
Suggest correction
What's this?
You can suggest a correction to this tab. Community and Mods will review your correction and vote to approve or reject it.
comments
We did not receive enough feedback on this tab! Please rate:
print report bad tab
1 2 3 4 5
guest
You may want to rate the tab now too:
select rating
Please do not post tabs as comments. Select "correction" instead!