Oops, an error
Loading. Please wait.

A Weakness And A Strength tab

94 views 3 this week
1 commentread comment
1 2 3 4 5
2 more votes to show rating
add to favorites
×
Save as Personal and add changes to this tab that will be seen only by you. Learn more ›
×
You can save this tab as Personal to edit and correct it or add notes. All changes will be seen only by you. Learn more »
launch autoscroll
font size
0
reset
how to read this tab
guitar tuner
edit
Autoscroll
slow
fast
+/-
esc
set tempo
stop
Chords from this video: https://www.youtube.com/watch?v=9laLjGD1Bes


[Intro]
e|---------------------------------------------------------------------------|
B|---0---0---0---0---0---0---0---0-------------------------------------------|
G|---------------------------------------------------------------------------|
D|---------------------------------------------------------------------------|
A|---------------------------------------------------------------------------|
E|-10---8---7---5---8---7---5---2--------------------------------------------|

[Verse]
e|---------------------------------------------------------------------------|
B|---0--------0--------0--------0--------------------------------------------|
G|-------0--------0--------0--------0----------------------------------------| (x4)
D|-----0--------0--------0--------0------------------------------------------|
A|----------2--------3-------------------------------------------------------|
E|-3--------------------------2----------------------------------------------|

[Verse]
Give me a window so I can look out there and see the world I'm in
e|---------------------------------------------------------------------------|
B|---0--------0--------0--------0--------------------------------------------|
G|-------0--------0--------0--------0----------------------------------------| (x4) 
D|-----0--------0--------0--------0------------------------------------------|
A|----------2--------3-------------------------------------------------------|
E|-3--------------------------2----------------------------------------------|

For all the sadness found there's bound to be some happiness within
e|---------------------------------------------------------------------------|
B|---0--------0--------0--------0--------------------------------------------|
G|-------0--------0--------0--------0----------------------------------------| (x4) 
D|-----0--------0--------0--------0------------------------------------------|
A|----------2--------3-------------------------------------------------------|
E|-3--------------------------2----------------------------------------------|

I have this feeling we're not dealing here with heaven or with hell
e|---------------------------------------------------------------------------|
B|---0--------0--------0--------0--------------------------------------------|
G|-------0--------0--------0--------0----------------------------------------| (x4) 
D|-----0--------0--------0--------0------------------------------------------|
A|----------2--------3-------------------------------------------------------|
E|-3--------------------------2----------------------------------------------|

I'm not a troublemaker but I have made some trouble for myself
e|---------------------------------------------------------------------------|
B|---0--------0--------0--------0--------------------------------------------|
G|-------0--------0--------0--------0----------------------------------------| (x4) 
D|-----0--------0--------0--------0------------------------------------------|
A|----------2--------3-------------------------------------------------------|
E|-3--------------------------2----------------------------------------------|

Give me the light and I will pass it on its best as I know how
e|---------------------------------------------------------------------------|
B|---0--------0--------0--------0--------------------------------------------|
G|-------0--------0--------0--------0----------------------------------------| (x4) 
D|-----0--------0--------0--------0------------------------------------------|
A|----------2--------3-------------------------------------------------------|
E|-3--------------------------2----------------------------------------------|

But you should know I will be calling at your door if mine goes out
e|---------------------------------------------------------------------------|
B|---0--------0--------0--------0--------------------------------------------|
G|-------0--------0--------0--------0----------------------------------------| (x4) 
D|-----0--------0--------0--------0------------------------------------------|
A|----------2--------3-------------------------------------------------------|
E|-3--------------------------2----------------------------------------------|

Some people who do not approve of how we live are bound to say
e|---------------------------------------------------------------------------|
B|---0--------0--------0--------0--------------------------------------------|
G|-------0--------0--------0--------0----------------------------------------| (x4) 
D|-----0--------0--------0--------0------------------------------------------|
A|----------2--------3-------------------------------------------------------|
E|-3--------------------------2----------------------------------------------|

We don't hear them, we're so sorry but we're just too far away
e|---------------------------------------------------------------------------|
B|---0--------0--------0--------0--------------------------------------------|
G|-------0--------0--------0--------0----------------------------------------| (x4) 
D|-----0--------0--------0--------0------------------------------------------|
A|----------2--------3-------------------------------------------------------|
E|-3--------------------------2----------------------------------------------|

Heeeeeey... Heeeeeeeeeey
e|---------------------------------------------------------------------------|
B|---0--------0--------0--------0--------------------------------------------|
G|-------0--------0--------0--------0----------------------------------------| (x4) 
D|-----0--------0--------0--------0------------------------------------------|
A|----------2--------3-------------------------------------------------------|
E|-3--------------------------2----------------------------------------------|

[Instrumental]
e|---------------------------------------------------------------------------|
B|---0---0---0---0---0---0---0---0-------------------------------------------|
G|---------------------------------------------------------------------------|
D|---------------------------------------------------------------------------|
A|---------------------------------------------------------------------------|
E|-10---8---7---5---8---7---5---2--------------------------------------------|

[Verse]
They had a funeral with beautiful flowers for the wife
e|---------------------------------------------------------------------------|
B|---0--------0--------0--------0--------------------------------------------|
G|-------0--------0--------0--------0----------------------------------------| (x4) 
D|-----0--------0--------0--------0------------------------------------------|
A|----------2--------3-------------------------------------------------------|
E|-3--------------------------2----------------------------------------------|

I hope she doesn't stay along for the rest of her life
e|---------------------------------------------------------------------------|
B|---0--------0--------0--------0--------------------------------------------|
G|-------0--------0--------0--------0----------------------------------------| (x4) 
D|-----0--------0--------0--------0------------------------------------------|
A|----------2--------3-------------------------------------------------------|
E|-3--------------------------2----------------------------------------------|

I don't suppose it's up to you or me to call it right or wrong
e|---------------------------------------------------------------------------|
B|---0--------0--------0--------0--------------------------------------------|
G|-------0--------0--------0--------0----------------------------------------| (x4) 
D|-----0--------0--------0--------0------------------------------------------|
A|----------2--------3-------------------------------------------------------|
E|-3--------------------------2----------------------------------------------|

But he was the kind of man who understand one day she should move on
e|---------------------------------------------------------------------------|
B|---0--------0--------0--------0--------------------------------------------|
G|-------0--------0--------0--------0----------------------------------------| (x4) 
D|-----0--------0--------0--------0------------------------------------------|
A|----------2--------3-------------------------------------------------------|
E|-3--------------------------2----------------------------------------------|

Give me a window so I can open it and let the summer in
e|---------------------------------------------------------------------------|
B|---0--------0--------0--------0--------------------------------------------|
G|-------0--------0--------0--------0----------------------------------------| (x4) 
D|-----0--------0--------0--------0------------------------------------------|
A|----------2--------3-------------------------------------------------------|
E|-3--------------------------2----------------------------------------------|

Don't have to be religiously inclined to comprehend my sin
e|---------------------------------------------------------------------------|
B|---0--------0--------0--------0--------------------------------------------|
G|-------0--------0--------0--------0----------------------------------------| (x4) 
D|-----0--------0--------0--------0------------------------------------------|
A|----------2--------3-------------------------------------------------------|
E|-3--------------------------2----------------------------------------------|

For every climb there is a storyline infinite in length
e|---------------------------------------------------------------------------|
B|---0--------0--------0--------0--------------------------------------------|
G|-------0--------0--------0--------0----------------------------------------| (x4) 
D|-----0--------0--------0--------0------------------------------------------|
A|----------2--------3-------------------------------------------------------|
E|-3--------------------------2----------------------------------------------|

And his Providence would plan for every man a weakness and a strength
e|---------------------------------------------------------------------------|
B|---0--------0--------0--------0--------------------------------------------|
G|-------0--------0--------0--------0----------------------------------------| (x4) 
D|-----0--------0--------0--------0------------------------------------------|
A|----------2--------3-------------------------------------------------------|
E|-3--------------------------2----------------------------------------------|

For every man a weakness and a strength
e|---------------------------------------------------------------------------|
B|---0--------0--------0--------0--------------------------------------------|
G|-------0--------0--------0--------0----------------------------------------| (x2) 
D|-----0--------0--------0--------0------------------------------------------|
A|----------2--------3-------------------------------------------------------|
E|-3--------------------------2----------------------------------------------|

For every man a weakness and a strength
e|---------------------------------------------------------------------------|
B|---0--------0--------0--------0--------------------------------------------|
G|-------0--------0--------0--------0----------------------------------------| (x2) 
D|-----0--------0--------0--------0------------------------------------------|
A|----------2--------3-------------------------------------------------------|
E|-3--------------------------2----------------------------------------------|

Heeeeeeeeey... Heeeeeeeeeey
e|---------------------------------------------------------------------------|
B|---0--------0--------0--------0--------------------------------------------|
G|-------0--------0--------0--------0----------------------------------------| (x4) 
D|-----0--------0--------0--------0------------------------------------------|
A|----------2--------3-------------------------------------------------------|
E|-3--------------------------2----------------------------------------------|

Heeeeeeeeeeeeeeeey... Heeeeeeeeey
e|---------------------------------------------------------------------------|
B|---0--------0--------0--------0--------------------------------------------|
G|-------0--------0--------0--------0----------------------------------------| (x4)  
D|-----0--------0--------0--------0------------------------------------------|
A|----------2--------3-------------------------------------------------------|
E|-3--------------------------2----------------------------------------------|

[Instrumental]
e|---------------------------------------------------------------------------|
B|---0---0---0---0---0---0---0---0-------------------------------------------|
G|---------------------------------------------------------------------------|
D|---------------------------------------------------------------------------|
A|---------------------------------------------------------------------------|
E|-10---8---7---5---8---7---5---2--------------------------------------------|

[Verse]
e|---------------------------------------------------------------------------|
B|---0--------0--------0--------0--------------------------------------------|
G|-------0--------0--------0--------0----------------------------------------| 
D|-----0--------0--------0--------0------------------------------------------|
A|----------2--------3-------------------------------------------------------|
E|-3--------------------------2----------------------------------------------|
Suggest correction
Creating personal tab
Creating personal tab
You can edit any tab online and save it as your Personal.

You can edit, replace or remove any tab part or add personal notes – all changes will be seen only by you.

Personal tabs can be accessed anytime from any device, even offline.
Learn more »
Give kudos to tab author, rate the tab!
1 2 3 4 5
comments
print report bad tab
1 comment total.
0 reply
bbfleshy03 10 Jul 15, 2017 10:21 PM

This is great thanks!

guest
You may want to rate the tab now too:
select rating
Wanna post a correction for this tab? Suggest correction