Oops, an error
Loading. Please wait.

Dance Little Lady Dance Bass Tab

19 views 1 this week
no commentswrite comment
1 2 3 4 5
3 more votes to show rating
add to favorites
launch autoscroll
font size
0
reset
guitar tuner
Autoscroll
slow
fast
+/-
esc
set tempo
stop
Help us to improve Ultimate-Guitar.com Take our survey!
×
Author
Dance Little Lady Dance
Single released by Tina Charles (born Tina Hoskins) in 1976
Reached #6 in UK charts. Tab by bass50611. Welcome to my tab, think
It’s pretty close to original bass line.

Intro:
G|----------------------------------------------------------------------|
D|-0--2--4--5--5--3-5---5--5--3-5-----------------------------5--5--3-5-|
A|--------------5-----------5-------7--7--5-7---7--7--5-7---------5-----|
E|--------------------------------------7-----------7-------------------|

G|----------------------------------------|
D|-5--5--3-5------------------------------|
A|-----5------7--7--5-7---5-5-5-5-5-5-5-5-|
E|----------------7-----------------------|

Verse 1:
G|----------------------------------------------------------------------|
D|-5--5--3-5---------------5--5--3-5--------------5--5--3-5-------------|
A|-----5-------7--7--5-7-------5------7--7--5-7-------5-------7--7--5-7-|
E|-----------------7----------------------7-----------------------7-----|

G|--------------------------------------------------------------------|
D|-5--5--3-5------------------------2-------2----4--7---------------2-|
A|-----5-------7--7--5-7--5-4--0--4----0--4----5-------5--3-2--0--4---|
E|-----------------7--------------------------------------------------|

G|---------------------|
D|------2----4--7------|
A|-0--4----5-------5-5-|
E|---------------------|

Chorus 1:
G|------------------------------------------------------------------|
D|-5--5--3-5---------------5--5--3-5--------------5---------------2-|
A|-----5-------7--7--5-7-------5------7--7--5-7--------2--2--0--4---|
E|-----------------7----------------------7----------3--------------|

G|----------------------------------------|
D|------2-------2----1--4----2--5---------|
A|-0--4----0--4----2-------3-------5--5-5-|
E|----------------------------------------|

Verse 2:
G|----------------------------------------------------------------------|
D|-5--5--3-5---------------5--5--3-5--------------5--5--3-5-------------|
A|-----5-------7--7--5-7-------5------7--7--5-7-------5-------7--7--5-7-|
E|-----------------7----------------------7-----------------------7-----|

G|--------------------------------------------------------------------|
D|-5--5--3-5------------------------2-------2----4--7---------------2-|
A|-----5-------7--7--5-7--5-4--0--4----0--4----5-------5--3-2--0--4---|
E|-----------------7--------------------------------------------------|

G|---------------------|
D|------2----4--7------|
A|-0--4----5-------5-5-|
E|---------------------|

Chorus 2:
G|------------------------------------------------------------------|
D|-5--5--3-5---------------5--5--3-5--------------5---------------2-|
A|-----5-------7--7--5-7-------5------7--7--5-7--------2--2--0--4---|
E|-----------------7----------------------7----------3--------------|

G|------------------------------------------|
D|------2-------2----1--4----2--5---0--2--4-|
A|-0--4----0--4----2-------3----------------|
E|------------------------------------------|

Instrumental:
G|-------------------------------------------------------------|
D|-5--5--3-5---5--5--3-5-----------------------------5--5--3-5-|
A|-----5-----------5-------7--7--5-7---7--7--5-7---------5-----|
E|-----------------------------7-----------7-------------------|

G|---------------------------------------|
D|-5--5--3-5-----------------------------|
A|-----5------7--7--5-7---7--7--5-7--5-4-|
E|----------------7-----------7----------|

Part Verse:
G|-------------------------------------------------------------|
D|------2-------2----4--7---------------2-------2----4--7------|
A|-0--4----0--4----5-------5--3-2--0--4----0--4----5-------5-5-|
E|-------------------------------------------------------------|

Chorus 3:
G|------------------------------------------------------------------|
D|-5--5--3-5---------------5--5--3-5--------------5---------------2-|
A|-----5-------7--7--5-7-------5------7--7--5-7--------2--2--0--4---|
E|-----------------7----------------------7----------3--------------|

G|------------------------------------------|
D|------2-------2----1--4----2--5---0--2--4-|
A|-0--4----0--4----2-------3----------------|
E|------------------------------------------|

Outro:                               (Repeat To Fade/End)
G|----------------------------------------------|
D|-5--5--3-5---------------5--5--3-5------------|
A|-----5-------7--7--5-7-------5------7--7--5-7-|
E|-----------------7----------------------7-----|




Dance Little Lady Dance
Yeah, yeah..
Someone taught me how to dance last night
What a move he was
And someone taught me how to do it right
What a groover he was
He taught me all the steps he knew to rock n roll
I found my sense of rhythm but I lost my self-control
When he said dance little lady, dance
Dance, little lady, dance
You know youve got only one chance
So come on, dance, dance, oh!
Someone taught me how to move last night
What a looker he was
Someone taught me how to do it right
What a cooker he was
Now we boogie and we bump until were fit to trop
And when he gets me going, I don't want to stop
When he says, dance, little lady, dance
Dance, little lady, dance
You know youve only got one chance
So come on, dance, dance, dance, oh!
Yeah, yeah!
We boogie and we bump until were fit to trop
And when he gets me going, I don't want to stop
When he says, dance, little lady, dance
Dance, little lady, dance
You know youve only got one chance
So come on, dance, dance, dance!
That's what he told me
Oh, what a mover!
That's what he told me
Oh, what a groover!
Dance, little lady
Suggest correction
Give kudos to tab author, rate the tab!
1 2 3 4 5
comments
print report bad tab
guest
You may want to rate the tab now too:
select rating
Wanna post a correction for this tab? Suggest correction