Oops, an error
Loading. Please wait.

I Love To Love Bass Tab

version 2
version 2

Whole song

22 views 3 this week
no commentswrite comment
1 2 3 4 5
3 more votes to show rating
add to favorites
launch autoscroll
font size
0
reset
guitar tuner
Autoscroll
slow
fast
+/-
esc
set tempo
stop
Help us to improve Ultimate-Guitar.com Take our survey!
×
Author
I Love To Love
A massive worldwide smash for Tina Charles in 1976. Number 1 in UK
And Ireland, number 2 US Billboard chart. Tab by bass50611
More or less as original release and what a great song it is.

Intro:
G|-----------------------------------------|
D|-GUITAR START----------------------------|
A|-----------------------------------------|
E|----------------5--5--5--5--5--5--5--5-6-|

Chorus 1:
G|------------------------------------------------------------------------|
D|-----------------------7--7--6--6--4--4-6-7--7--------------------------|
A|------------7--7--7--7-------------------------------------6-7--7--7--7-|
E|-7--7--7--7-------------------------------------7--7--7--7--------------|

                                                            (Pause)
G|------------------------------------------------------------|
D|---------------------------------------------4-2------------|
A|-------------5--5--4--4--2--2--4--4--------------5--5-5-6-7-|
E|-5--5--5--5--------------------------2--2--2----------------|

G|-----------------------------------|
D|------------------------7--7--7--7-|
A|------------6-7--7---7-------------|
E|-7--7--7--7-------7-0--------------|

Verse 1:
G|-------------------------------------------------------------------|
D|-------------------------------------------------------------------|
A|---------------------------5--5--5--5-6-7--7--7-5-4----------------|
E|-5--5--5--5-3-1--1--1--1-1--------------------------7-5--5--5--5-3-|

G|--------------------------------------|
D|--------------------------------------|
A|--------------5--5--5--5-6-7----------|
E|-1--1--1--1-1-----------------0--0--0-|

Chorus 2:
G|------------------------------------------------------------------------|
D|-----------------------7--7--6--6--4--4-6-7--7--------------------------|
A|------------7--7--7--7-------------------------------------6-7--7--7--7-|
E|-7--7--7--7-------------------------------------7--7--7--7--------------|

                                                            (Pause)
G|------------------------------------------------------------|
D|---------------------------------------------4-2------------|
A|-------------5--5--4--4--2--2--4--4--------------5--5-5-6-7-|
E|-5--5--5--5--------------------------2--2--2----------------|

G|-------------------------------------|
D|--------------------------7--7--7--7-|
A|------------6-7--7--7--7-------------|
E|-7--7--7--7--------------------------|

Verse 2:
G|-------------------------------------------------------------------|
D|-------------------------------------------------------------------|
A|---------------------------5--5--5--5-6-7--7--7-5-4----------------|
E|-5--5--5--5-3-1--1--1--1-1--------------------------7-5--5--5--5-3-|

G|----------------------------------------------------------------|
D|----------------------------------------------------------------|
A|--------------5--5--5--5-6-7------------------------------------|
E|-1--1--1--1-1-----------------0--0--0---7--7--7--7---0--0--0--0-|

G|------------------------|
D|------------------------|
A|------------------------|
E|-5--5--4--4--2--2--2--2-|

Interlude:
G|------------------------------------------------|
D|-------------4--4-------------------------------|
A|-4--4--4--4-----------0--2--2--2--2-------------|
E|-------------------2-----------------4--4--4--4-|

Outro:
G|------------------------------------------------------------------------|
D|-------------4--4--------------------------------------------4--4-------|
A|-4--4--4--4-----------0--2--2--2--2--------------4--4--4--4-----------0-|
E|-------------------2-----------------4--4--4--4--------------------2----|

G|------------------------------------------------------------------------|
D|-------------------------------------4--4-------------------------------|
A|-2--2--1--1--------------4--4--4--4-----------0--2--2--1--1-------------|
E|-------------4--4--4--4--------------------2-----------------4--4--4--4-|

                                     Repeat This Bit To Fade/End)
G|------------------------------------------------|
D|-------------4--4-------------------------------|
A|-4--4--4--4-----------0--2--2--1--1-------------|
E|-------------------2-----------------4--4--4--4-|



(chourus)
Oh I love to love
But my baby just loves to dance
He wants to dance, he loves to dance
He's got to dance
Oh, I love to love
But my baby just loves to dance
Oh, I love to love
But there's no time for our romance, no, no, noooo
Oh, I love to love
But my baby just loves to dance

The minute the bands begin to swing it
He's on his feet to dig it and dance the night away
Stop, I'm spinning like a top
We'll dance until we drop
But if I had my way

[Chorus:]

Oh I love to love
But my baby just loves to dance
He wants to dance, he loves to dance
He's got to dance
Oh, I love to love
But my baby just loves to dance
Oh, I love to love
But he won't give our love a chance, no, no, noooo
Oh, I love to love
But my baby just loves to dance

Stop, I'm spinning like a top
We'll dance until we drop
But if I had my way
Sometimes, instead of going downtown
We'll stay at home and get down
To what I'm trying to say

Oh, I love to love
But my baby just loves to dance, yeah, yeah,
Oh, I love to love
But my baby loves to dance, yes he does(x3)
Suggest correction
Give kudos to tab author, rate the tab!
1 2 3 4 5
comments
print report bad tab
guest
You may want to rate the tab now too:
select rating
Wanna post a correction for this tab? Suggest correction