Oops, an error
Loading. Please wait.

Ask Again tab

646 views 6 this week
no commentswrite comment
1 2 3 4 5
1 last vote to show rating
add to favorites
×
Save as Personal and add changes to this tab that will be seen only by you. Learn more ›
×
You can save this tab as Personal to edit and correct it or add notes. All changes will be seen only by you. Learn more »
launch autoscroll
font size
0
reset
how to read this tab
guitar tuner
edit
Autoscroll
slow
fast
+/-
esc
set tempo
stop
Tina Dico - Ask again
---------------------

Capo 3

G                  3200xx  G* (Gadd#9)         3203xx
D/F#               2x02xx  Am                  x02210
Am/B               x20210  C                   x32010
C/B                x20010  Dadd9               x54030
Gsus2              x000xx  Gsus4               x300xx

Intro
-----

          Gsus4  Gsus2    Gsus4
    G     |  G   |  G     |   D/F#
|| |------------|------------|------------|------------| ||
|| |------------|------------|------------|------------| ||
||*|--0--0--0--0|--0--0--0--0|--2--2--2--2|--2--2--2--2|*||
||*|-0--0--0--0-|-0--0--0--0-|-0--0--0--0-|-0--0--0--0-|*||
|| |------3--2--|0-----2--3--|------------|------------| ||
|| |3--3--------|---3--------|2--2--2--2--|2--2--2--2--| ||
Ask again...         I'll say yes            yes 
 ...again...         I'll say yes            yes    No matter

Verse
-----

    G*                        D/F#
|| |------------|------------|------------|------------| ||
|| |------------|------------|------------|------------| ||
||*|--3--3--3--3|--3--3--3--3|--2--2--2--2|--2--2--2--2|*||
||*|-0--0--0--0-|-0--0--0--0-|-0--0--0--0-|-0--0--0--0-|*||
|| |------------|------------|------------|------------| ||
|| |3--3--3--3--|3--3--3--3--|2--2--2--2--|2--2--2--2--| ||
    Dawn is breaking...       Berlin.
    Bottles have ...          noticing. 
    
    Em                        D/F#
   |------------|------------|------------|------------| 
   |------------|------------|------------|------------| 
   |--0--0--0--0|--0--0--0--0|--2--2--2--2|--2--2--2--2| 
   |-2--2--2--2-|-2--2--2--2-|-0--0--0--0-|-0--0--0--0-| 
   |------------|------------|------------|------------| 
   |0--0--0--0--|0--0--0--0--|2--2--2--2--|2--2--2--2--| 
You kissed me ...        four-word one.

    G*                        D/F#
   |------------|------------|------------|------------| 
   |------------|------------|------------|------------| 
   |--3--3--3--3|--3--3--3--3|--2--2--2--2|--2--2--2--2| 
   |-0--0--0--0-|-0--0--0--0-|-0--0--0--0-|-0--0--0--0-| 
   |------------|------------|------------|------------| 
   |3--3--3--3--|3--3--3--3--|2--2--2--2--|2--2--2--2--| 
  I smiled and said...        gone.
   
             Am/B         C/B          Am/B         
    Am       |   C        |   Am       |   C        C/B
   |------------|------------|------------|------------| 
   |------------|------------|------------|------------| 
   |--2--2--2--2|--0--0--0--0|--2--2--2--2|--0--0--0--0| 
   |-2--2--2--0-|-2--2--2--0-|-2--2--2--0-|-2--2--2--0-| 
   |0--0--0--2--|3--3--3--2--|0--0--0--2--|3--3--3--2--| 
   |------------|------------|------------|------------| 
    You didn't...morning      You didn't...day
   
             Am/B         C/B                
    Am       |   C        |   Am    C      Dadd9
   |------------|------------|------------|------------| 
   |------------|------------|------------|------------| 
   |--2--2--2--2|--0--0--0--0|--2--2--0--0|--0--0--0--0| 
   |-2--2--2--0-|-2--2--2--0-|-2--2--2--2-|-4--4--4--4-| 
   |0--0--0--2--|3--3--3--2--|0--0--3--3--|5--5--5--5--| 
   |------------|------------|------------|------------|    
    You didn't...summer   ... now..slipp...away


Chorus
------

          Gsus4  Gsus2    Gsus4
    G     |  G   |  G     |   D/F#
|| |------------|------------|------------|------------| ||
|| |------------|------------|------------|------------| ||
||*|--0--0--0--0|--0--0--0--0|--2--2--2--2|--2--2--2--2|*||
||*|-0--0--0--0-|-0--0--0--0-|-0--0--0--0-|-0--0--0--0-|*||
|| |------3--2--|0-----2--3--|------------|------------| ||
|| |3--3--------|---3--------|2--2--2--2--|2--2--2--2--| ||
Ask again...         I'll say yes            yes 
 ...again...         I'll say yes            yes    No matter
        
          Gsus4  Gsus2    Gsus4
    Em    |  G   |  Em G  |   D/F#
   |------------|------------|------------|------------| 
   |------------|------------|------------|------------| 
   |--0--0--0--0|--0--0--0--0|--2--2--2--2|--2--2--2--2| 
   |-2--2--0--0-|-0--0--0--0-|-0--0--0--0-|-0--0--0--0-| 
   |------3--2--|0-----2--3--|------------|------------| 
   |0--0--------|---0--------|2--2--2--2--|2--2--2--2--| 
 ...when ...     The answer is yes



        
Verse 1:                G*                                   D/F#
                        Dawn was breaking in the streets of Berlin
                        G*                                            D/F#                                   
                        Bottles had emptied themselves without nobody noticing
                                Em 
                        You kissed me and asked me the question
                                                         D/F#
                        Yes the big four-word one
                          G*                                                 D/F#
                        I smiled and said ask me again, when the hangover is gone
                                Am         Am/B       C          C/B
                        But you didn't ask in the morning
                        Am             Am/B    C     C/B
                        You didn't ask me that day
                        Am             Am/B   C      C/B
                        You didn't ask in the summer
                                Am             C       Dadd9
                        And now winter is melting   away

                        
Chorus:                 G
                        Ask again
                             D/F#
                        I'll say yes
                        
                        Yes
                                        G
                        If you ask me again
                                 D/F#
                        I'll say yes
                        Yes
                                  Em
                        No matter when
                                      D/F#
                        The answer is yes
                        Yes          G*      D/F#
                        Just ask me again

                        G*            D/F#              

                        
Verse 2:                G*                                  D/F#
                        We fell into silence in the streets of Berlin
                        G*                                       D/F#
                        Hand in hand into the misty pink morning unraveling
                            Em                                                  D/F#
                        You looked at me sideways I stopped to reasure you with a kiss
                           G*                                          D/F#
                        So happy in my heart to know we'd forever walk hand in hand like this
                                Am         Am/B       C          C/B
                        But you didn't ask in the morning
                        Am             Am/B    C     C/B
                        You didn't ask me that day
                        Am             Am/B   C      C/B
                        You didn't ask in the summer
                                Am             C        Dadd9
                        And now winter is splipping away

Chorus (end on G)

--------------------------------------------------------------------------------
Tabbed in February 2016.    Hope you enjoy it.  Joern
Send any corrections or comments to:    MCWZQQGXYUHK@spammotel.com   
Suggest correction
Creating personal tab
Creating personal tab
You can edit any tab online and save it as your Personal.

You can edit, replace or remove any tab part or add personal notes – all changes will be seen only by you.

Personal tabs can be accessed anytime from any device, even offline.
Learn more »
Give kudos to tab author, rate the tab!
1 2 3 4 5
comments
print report bad tab
guest
You may want to rate the tab now too:
select rating
Wanna post a correction for this tab? Suggest correction