Oops, an error
Loading. Please wait.

Back Where We Started Tab

version 2
version 2

Whole song

Interactive

2,307 views 1 this week
no commentswrite comment
1 2 3 4 5
please rate
add to favorites
launch autoscroll
font size
0
reset
how to read this tab
guitar tuner
Tab Pro tools
  • play this tab
  • loop segment
  • change instrument
  • show fretboard
  • metronome
×
Best way to learn
"Back Where We Started"
Autoscroll
slow
fast
+/-
esc
set tempo
stop
Contributor
Difficulty
Capo
intermediate
2nd fret
Tina Dico - Back Where We Started (from album "Far", track length 4:50)

Tabbed by: Sascha Paysen
EMail: blueblizzard@arcor.de

I think this tabs are very close, if you figure something out which works better
please email me. I leave out two or three notes at the end of Verse and/or Refrain.
It should be easy for you to figure it out when you listen to the song.

-------------------------------------------------------------------------------------

Tuning: D A D f# g# e
Capo: 2nd Fret

Intro (1X)

e |-----0---------0---------0---------0--------0---------0---------0---------(0)------|
g#|--------0---------0---------0----------0-------0---------0---------0---------------|
f#|----------3---------0---------3-------3----------3---------0---------3-------------|
D |----2----2----2----2----2----2----2--------2----2----2----2----2----2--------------|
A |-0---------0----------------------------0---------0--------------------------------|
D |---------------------0---------0----------------------------0---------0------------|

Verse (3x)

e |-----0---------0---------0---------0---------0---------0---------0-----------------|
g#|--------0---------0---------0---------0---------0---------0---------0--------------|
f#|----3-----3---3-----3---3-----3---3-----3---------3-------------------3------------|
D |-0-------0-0-------0------------------------4---------4---------2----2-------------|
A |---------------------2-------2-2-------2-------------------------------------------|
D |-----------------------------------------4-------4-4-------4s0---------0-----------|

Verse (1x)

e |-----0---------0---------0----------------0---------0---------0-----------0--------|
g#|--------1-0-------1-0--------1-0-------------1-0-------1-0-------1-0---------------|
f#|---------------------------0-------0-----------------------------------------------|
D |----2---------2---------2--------2-------2---------2---------2---------------------|
A |-----------------------------------------------------------------------------------|
D |-2-------2-2-------2-0----------------2-------2-2-------2-0-------0-0--------------|

Verse (1x)

e |-----0---------0---------0-------- 0-----------------------------------------------|
g#|--------0-2-------2-3-------3-2----------------------------------------------------|
f#|----2---------2---------2----------------------------------------------------------|
D |-----------------------------------------------------------------------------------|
A |-4-------4-4-------4-4-------4-4---------------------------------------------------|
D |-----------------------------------------------------------------------------------|

Refrain (do the 0 and 2 bass part with your thumb then it is easy to play)

e |-----0---------0---------0---------0---------0---------0---------0---------0-------|
g#|--------0---------0---------0---------0---------0---------0---------0---------0----|
f#|----------3---------3---------3---------3---------3---------3---------3---------3--|
D |----2----2----2----2----2----2----2----2----2----2----2----2----4----2----4----2---|
A |-----------------------------------------------------------------------------------|
D |-0---------2---------0---------2---------0---------2---------4---------4-----------|

e |-----0---------0---------0---------0---------0---------0---------0---------0-------|
g#|--------0---------0---------0---------0---------0---------0---------0---------0----|
f#|----------3---------3---------3---------3---------3---------3---------3---------3--|
D |----2----2----2----2----2----2----2----2----2----2----2----2----4----2----4----2---|
A |-----------------------------------------------------------------------------------|
D |-0---------2---------0---------2---------0---------2---------4---------4-----------|

take down volume and speed during this last one, listen to the song to figure out how to

e |-----0---------0---------0---------0-----------------------------------------------|
g#|--------0---------0---------0------------------------------------------------------|
f#|----------3---------3---------3-------------3--------------------------------------|
D |----2----2----2----2----2----2----2------2-----------------------------------------|
A |-----------------------------------------------------------------------------------|
D |-0---------0---------0---------0---------------------------------------------------|

Now you are at the end of the first Refrain, and the following is nearly the same:

Intro
Verse
Refrain

Bridge (the thing with the piano at 3:23)

e|-----0---------0---------0---------0-----------------------------------------------|
B|--------1---------1---------1-----------2------------------------------------------|
G|----------2---------0---------2----------------------------------------------------|
D|----2---------2---------2---------2----2-------------------------------------------|
A|-----------------------------------------------------------------------------------|
E|-2-------2-2-------2-0-------0-0---------------------------------------------------|

e|-----0---------0---------0---------0-----------------------------------------------|
B|--------1---------1---------1-----------2------------------------------------------|
G|----------2---------0---------2----------------------------------------------------|
D|----2---------2---------2---------2----2-------------------------------------------|
A|-----------------------------------------------------------------------------------|
E|-2-------2-2-------2-0-------0-0---------------------------------------------------|

e|-----0---------0---------0-------- 0-----------------------------------------------|
B|--------0-2-------2-3-------3-2----------------------------------------------------|
G|----2---------2---------2----------------------------------------------------------|
D|-----------------------------------------------------------------------------------|
A|-4-------4-4-------4-4-------4-4---------------------------------------------------|
E|-----------------------------------------------------------------------------------|

Refrain again. Theres a simple change in the bass line which you can figure out easily!
comments
We did not receive enough feedback on this tab! Please rate:
print report bad tab
1 2 3 4 5
I want to post or [tab]
guest
You may want to rate the tab now too:
select rating
Please do not post tabs as comments. Select "correction" instead!