Oops, an error
Loading. Please wait.

Lets Get Lost Tab

40 views 1 this week
no commentswrite comment
1 2 3 4 5
3 more votes to show rating
add to favorites
launch autoscroll
font size
0
reset
how to read this tab
guitar tuner
Autoscroll
slow
fast
+/-
esc
set tempo
stop
Help us to improve Ultimate-Guitar.com Take our survey!
×
Author
Difficulty
Tuning
intermediate
D A D G B E
Tina Dico - Let's get lost
---------------------------

Drop D

Note: The hammer ons are played with different strength or even omitted at all


e|----------------|----------------|
B|----------------|----------------|
G|----------------|----------------|
D|-------5---4----|-----0H4---2--p0|
A|----------------|----------------|
D|-2--------------|-0--------------|


[Verse 1 + 2 + 3]

   Pattern A        Pattern B
e| |----------------|----------------| |
B| |----------------|----------------| |
G|*|----------------|----------------|*|
D|*|-----0H5---4----|-----0H4---2--p0|*|
A| |----------------|----------------| |
D| |-2--------------|-0--------------| |
4x

 Pattern C        Pattern B        Pattern A        Pattern B
e|----------------|----------------|----------------|----------------|
B|----------------|----------------|----------------|----------------|
G|-------0--------|----------------|----------------|----------------|
D|-----4-----4----|-------4---2--p0|-----0H5---4----|-----0H4---2--p0|
A|-3--------------|----------------|----------------|----------------|
D|----------------|-0--------------|-2--------------|-0--------------|

 Pattern C        Pattern B        Pattern D
e|----------------|----------------|----------------|----------------|
B|----------------|----------------|-------------3--|----------------|
G|-------0--------|----------------|----------------|----------------|
D|-----4-----4----|-------4---2--p0|-----0H5---4----|----------------|
A|-3--------------|----------------|----------------|----------------|
D|----------------|-0--------------|-2--------------|----------------|


[Chorus]


e| |----------------|----------------|----------------|----------------| |
B| |-------3--------|-------3--------|-------3--------|-------3--------| |
G|*|---------0---0--|---------0---0--|---------0---0--|---------0---0--|*|
D|*|-----4-----4----|-----4-----4----|-----4-----4----|-----4-----4----|*|
A| |-3--------------|----------------|----------------|----------------| |
D| |----------------|-0--------------|-2--------------|-4--------------| |
3x


e|----------------|----------------|----------------|
B|-------3--------|-------3--------|----------------|
G|---------0---0--|---------0---0--|----------------|
D|-----4-----4----|-----4-----4----|-----0H5---4----|
A|-3--------------|----------------|----------------|
D|----------------|-0--------------|-2--------------|


[Verse 1]

There's nothing like doubt tearing your mind
To leave you muddled up and blind
There's nothing like fear riding your soul
To leave you stone cold
There's nothing like rain falling in the night
From a vast hidden height
Falling like tears from the dark sky's lonely eye

[Verse 2]

There's nothing like heat biting your skin
To let you boil from within
There's nothing like sweat dripping down your spine
Gleaming nights
There's nothing like flames licking in the air
Hungry, without a care
Licking like tongues, here and there and everywhere

[Chorus]

Let's get lost
Let these frozen hearts defrost
Whatever the cost, let's get lost
Let's get lost
Roll the dice and play our cards
Whatever the cost, let's get lost

[Verse 3]

There's nothing like hopes taken to the test
To the edge of more or less
There's nothing like truth cutting to the bone
To leave you overthrown
There's nothing like hearts breaking in two
As only trusting hearts can do
Breaking like glass, frail and new
What else can we do?

[Chorus]

Let's get lost
Let these frozen hearts defrost
Whatever the cost, let's get lost
Let's get lost
Throw the dice and play our cards
Whatever the cost, let's get lost

Let's get lost
Let's get lost
Let's get lost

In too deep
In too deep
Already we're in too deep
Feels good to be in too deep
Suggest correction
Give kudos to tab author, rate the tab!
1 2 3 4 5
comments
print report bad tab
guest
You may want to rate the tab now too:
select rating
Wanna post a correction for this tab? Suggest correction