Oops, an error
Loading. Please wait.

My Business Tab

2,430 views 1 this week
no commentswrite comment
1 2 3 4 5
please rate
add to favorites
launch autoscroll
font size
0
reset
how to read this tab
guitar tuner
Tab Pro tools
  • play this tab
  • loop segment
  • change instrument
  • show fretboard
  • metronome
×
Best way to learn
"My Business"
Autoscroll
slow
fast
+/-
esc
set tempo
stop
Contributor
Difficulty
Capo
intermediate
3rd fret
My business
Tina Dickow
'Count to Ten'

Tabbed by: TT-Rocks
Email: thomas@thyregod.net

Tuning: Standard 
        Capo 3rd

into/main riff:
E----------------------------------------------------------------|
B-----0--------0--------0--------2--------0-------2--------0-----|
G-------4----3---3--------1--------4--------4---3---3--------1---|
D--/6-----6--------4--2-----2--5-----5--6-----6-------4--2-----2-|
A----------------------------------------------------------------|
e----------------------------------------------------------------|

Pre-Chorus
E-------------------------------|
B--2-----2---------0-----0------|
G----3-----3---3-----1-----1--1-|
D-4----4-----4---2-----2----2---| x3
A-------------------------------|
e-------------------------------|

Bridge:
E--------------------------------------------------------------|
B-----0-----------------0--------0-------2--------0------0-----|
G-------4----3h4p3--------1--------4---3---3--------1------1---|
D--/6-----6--------4--2-----2--6-----6-------4--2-----2------2-|
A--------------------------------------------------------------|
e--------------------------------------------------------------|

Chorus:       
E--(4)-x--x--x-|  
B--(4)-4--7--6-|  
G---4--4--8--6-|  x2
D---6--4--8--6-|  
A---6--2--6--4-|  
e---4----------|  

Bridge:
E--------------------------------------------------------------|
B-----0-----------------0--------0-------2--------0------0-----|
G-------4----3h4p3--------1--------4---3---3--------1------1---|
D--/6-----6--------4--2-----2--6-----6-------4--2-----2------2-|
A--------------------------------------------------------------|
e--------------------------------------------------------------|

Chorus:       
E--(2)-x-|     E-(2)-x--|
B--(2)-0-|     B--3--9--|
G---2--1-|  x2 G--4--9--|
D---4--2-|     D--4--9--|
A---4--2-|     A--2--7--|
e---2--0-|     e--------|

Last chorus:
E--(4)-x--x--x--x--x-|  
B--(4)-4--7--4--7--6-|  
G---4--4--8--4--8--6-|
D---6--4--8--4--8--6-|  
A---6--2--6--2--6--4-|  
e---4----------------| 


ending:
E--------------------------------------------------------------|
B-----0-----------------0--------0-------2--------0------0-----|
G-------4----3h4p3--------1--------4---3---3--------1------1---|...
D--/6-----6--------4--2-----2--6-----6-------4--2-----2------2-|
A--------------------------------------------------------------|
e--------------------------------------------------------------|

There may be some minor flaws but it sounds quite right.

comments
We did not receive enough feedback on this tab! Please rate:
print report bad tab
1 2 3 4 5
I want to post or [tab]
guest
You may want to rate the tab now too:
select rating
Please do not post tabs as comments. Select "correction" instead!