Oops, an error
Loading. Please wait.

Point Of No Return Tab

941 views 3 this week
no commentswrite comment
1 2 3 4 5
please rate
add to favorites
launch autoscroll
font size
0
reset
how to read this tab
guitar tuner
Tab Pro tools
  • play this tab
  • loop segment
  • change instrument
  • show fretboard
  • metronome
×
Best way to learn
"Point Of No Return"
Autoscroll
slow
fast
+/-
esc
set tempo
stop
Contributor
Difficulty
Capo
novice
4th fret
Tina Dico - Point Of No Return
------------------------------

Capo 4  -  6/8 time

Chords:

A x02220    G  320001     B7/C  x3120x   Bm  x24432   Am/G 302210
C x32010    B7 x2120x     Em    022000   F#  244322

Here's how to pick it very easily throughout the whole song:

 A            A            C            C            G            
|------------|------------|------------|------------|------------|
|---2-----2--|---2-----2--|---1-----1--|---1-----1--|---0-----0--|
|----2~----2~|----2~----2~|----0~----0~|----0~----0~|----0~----0~|
|------------|------------|------------|------------|------------|
|0~~---0~~---|0~~---0~~---|3~~---3~~---|3~~---3~~---|------------|
|------------|------------|------------|------------|3~~---3~~---|

 G            B7            B7/C        Am           Am           
|------------|------------|------------|------------|------------|
|---0-----0--|---0-----0--|---0-----0--|---1-----1--|---1-----1--|
|----0-----0~|----1~----1~|----1~----1~|----2~----2~|----2~----2~|
|------------|------------|------------|------------|------------|
|------------|2~~---2~~---|3~~---3~~---|0~~---0~~---|0~~---0~~---|
|3~~---3~~---|------------|------------|------------|------------|

 C            C            G            G            F#           
|------------|------------|------------|------------|------------|
|---1-----1--|---1-----1--|---0-----0--|---0-----0--|---2-----2--|
|----0~----0~|----0~----0~|----0~----0~|----0-----0~|----3~----3~| 
|------------|------------|------------|------------|------------|
|3~~---3~~---|3~~---3~~---|------------|------------|------------|
|------------|------------|3~~---3~~---|3~~---3~~---|2~~---2~~---|

 F#           Em           Em           Bm           Bm
|------------|------------|------------|------------|------------|
|---2-----2--|---0-----0--|---0-----0--|---3-----3--|---3-----3--|
|----3~----3~|----0~----0~|----0-----0~|----4~----4~|----4~----4~|
|------------|------------|------------|------------|------------|
|------------|------------|------------|2~~---2~~---|2~~---2~~---|
|2~~---2~~---|0~~---0~~---|0~~---0~~---|------------|------------|

 F#           F#           G            F#           Em           
|------------|------------|------------|------------|------------|
|---2-----2--|---2-----2--|---0-----0--|---2-----2--|---0-----0--|
|----3~----3~|----3~----3~|----0-----0~|----3~----3~|----0~----0~|
|------------|------------|------------|------------|------------|
|------------|------------|------------|------------|------------|
|2~~---2~~---|2~~---2~~---|3~~---3~~---|2~~---2~~---|0~~---0~~---|

 Em           Bm           G            Bm           Bm           
|------------|------------|------------|------------|------------|
|---0-----0--|---3-----3--|---0-----0--|---3-----3--|---3-----3--|
|----0-----0~|----4~----4~|----0-----0~|----4~----4~|----4~----4~|
|------------|------------|------------|------------|------------|
|------------|2~~---2~~---|------------|2~~---2~~---|2~~---2~~---|
|0~~---0~~---|------------|3~~---3~~---|------------|------------|

 B7           B7           Em           Em           
|------------|------------|------------|------------|
|---0-----0--|---0-----0--|---0-----0--|---0-----0--|
|----1~----1~|----1~----1~|----0-----0~|----0-----0~| ...
|------------|------------|------------|------------|
|2~~---2~~---|2~~---2~~---|------2~~---|------2~~---|
|------------|------------|0~~---------|0~~---------|


Here's the complete song:
--------------------------

A A C C G G B7 B7/C

A      A                      C
  It's strange how we always go back
C              G    G
   To where we fell
           B7   B7/C Am
To what we know so   well
  Am            C
I'm walking into the flames
C                 G      
   To where I got burnt
G                   F#       F#    Em
   I'm way past the point of no return
    Em               Bm    Bm
And I know that I'm crazy
       F#    F#        G 
To be coming back for more
    F#             Em
But I don't wanna learn
Em                    Bm
'Cause I hope it'll break me
G         Bm
 And then take me
Bm         B7        B7     Em    Em Em Em
Somewhere I've never been before

A     A                      C       C
  If battle is all the heart has seen
            G    G
It feels at home
                  B7  B7/C   Am
In the eye of the battle    zone
      Am                      C       C
With bullets like comforting touches
           G     G
A powerful urge
                   F#       F#    Em
To go way past the point of no return
    Em               Bm   Bm
And I know that I'm crazy
      F#     F#        G
To be coming back for more
    F#             Em
But I don't wanna learn
Em                   G        G
'Cause I hope it'll break me
                     Bm
'Cause maybe that'll take me
Bm         B7        B7     Em   Em Em Em
Somewhere I've never been before


Hmmmm....
Am Am/G C C F# F#  Em

Em                     Bm    
   And I know that I'm crazy
Bm       F#     F#        G
   To be coming back for more
    F#             Em
But I don't wanna learn
      Em            G        G
'Cause I hope it'll save me
          Bm     
From this lonely
Bm         B7              B7     Em  Em Em Em
Walk right back to where I was before
   Hmmm
A  A  C  C  G G B7 B7/C Em

-----------------------------------------------------------------------------------
Tabbed in January 2013.    Hope you enjoy it.  Joern
Send any corrections or comments to:    MCWZQQGXYUHK@spammotel.com        
comments
We did not receive enough feedback on this tab! Please rate:
print report bad tab
1 2 3 4 5
I want to post or [tab]
guest
You may want to rate the tab now too:
select rating
Please do not post tabs as comments. Select "correction" instead!