Oops, an error
Loading. Please wait.

Room With A View Tab

version 1
version 1

Whole song

15,038 views 9 this week
no commentswrite comment
1 2 3 4 5
accurate
x 5
add to favorites
launch autoscroll
font size
0
reset
how to read this tab
guitar tuner
Autoscroll
slow
fast
+/-
esc
set tempo
stop
Help us to improve Ultimate-Guitar.com Take our survey!
×
Difficulty
Capo
intermediate
2nd fret
Room With A View                                 
by Tina Dickow


Tab made by Christian Christoffersen
Acoustic guitar (Capo 2)
FORM:
Intro
Verse 1 
Verse 2 (Band enters)
Bridge
Verse 3
Bridge/
solo (Runs verse through solo)
Verse 4 (½ verse without band)
Outro

To see the text - look up tinadickow.dk or tinadico.com

     INTRO                                                     
     
E||------------------------------|----------------------------|
B||-------------3----3-------3---|--1-------1----0-1----------|
G||----------0-----0------2------|-------2-----2------2-------|
D||--------0------------0--------|-----2-----------------2----|
A||------------------------------|--0-----------------------0-|
E||--3---------------2-----------|----------------------------|


 
---------------0-----------|----------------------------|
----------1--------1-----1-|----------3------------3----|
-------0-----0--------0----|-------0-----0------0-----0-|
-----2---------------------|-----4------------4---------|
--3------------------------|--5------------5------------|
---------------------------|----------------------------|


                                                       
   
----------------------------||
----------1----3-------3----||
-------0-----0------0-----0-||
-----2------------4---------||
--3------------5------------||
----------------------------|


VERSE
Repeat INTRO twice in verse with slightly changes in 1st & 3rd bar. Then end verse with:

----------------------------|-------------------------|
----------0------------0----|--1----3----1-------1----|
-------0-----0------0-----0-|-----------------2-----2-|
-----2------------2---------|---------------2---------|
----------------------------|--3----2----0------------|
--0------------0------------|-------------------------|


    
----------------------------||
----------3------------3----||
-------0-----0------0-----0-||
-----0------------0---------||
----------------------------||
--3------------3------------|| 


BRIDGE/CHORUS


E||----------------------------|----------------------------|
B||----------3------------3----|----------3------------3----|
G||-------0-----0------0-----0-|-------0-----0------0-----0-|
D||-----2------------2---------|-----2------------2---------|
A||--3------------3------------|--3------------3------------|
E||----------------------------|----------------------------|


   
-------------------------|----------------------------|
----------3----1----3----|----------0------------0----|
-------0-----0-----------|-------0-----0------0-----0-|
-----2-------------------|-----2------------2---------|
--3------------0----2----|--3------------3------------|
-------------------------|----------------------------|

   
----------------------------||
----------0------------0----||
-------0-----0------0-----0-||
-----2------------2---------||
--3------------3------------||
----------------------------||

Outro - The last line of verse 4 is the first too bars in the outro. 
The outro ends with repeating "Thank god for this beautiful view" 3 times.

E||-------------------------|----------------------------|
B||--1----3----1-------1----|----------3------------3----|
G||--0----0----2----2-----2-|-------0-----0------2-----2-|
D||---------------2---------|-----0------------0---------|
A||--3----2----0------------|----------------------------|
E||-------------------------|--3------------2------------|
  
 
----------------------------|-------------------------|
----------0------------0----|--1----3----1-------1----|
-------0-----0------0-----0-|--0----0----2----2-----2-|
-----2------------2---------|---------------2---------|
----------------------------|--3----2----0------------|
--0------------0------------|-------------------------|


    
----------------------------|-------------------------|--------------------||
----------0------------0----|--1----3----1-------1----|----------3----3----||
-------0-----0------0-----0-|--0----0----2----2-----2-|-------0-----0------||
-----2------------2---------|---------------2---------|-----0--------------||
----------------------------|--3----2----0------------|--------------------||
--0------------0------------|-------------------------|--3-----------------||



SLIDE GUITAR(Verse) - This section I play with a pedalcombination of "Slow attack", Limiter and "Reverb". 
This gives a nice slideeffect. My GT5 has a preset sound called "Cutting" wich I added "Slow attack" to. 
Sounds just like the record.


 H(alf)    H           W(hole)             H.           Q(uarter)    
--------------------|-------------------|---------------------|
--10--------9-------|--7----------------|--10------------12s--|
--------------------|-------------------|---------------------|
--------------------|-------------------|---------------------|
--------------------|-------------------|---------------------|
--------------------|-------------------|---------------------|


  H.           Q       H        H           H        H         
--------------------|--------------------|--------------------|
--9------------10s--|--7-----------------|--10--------9-------|
--------------------|-----------9--------|--------------------|
--------------------|--------------------|--------------------|
--------------------|--------------------|--------------------|
--------------------|--------------------|--------------------|


  W                   H.            Q       H.           Q     
-------------------|---------------------|--------------------|
--7----------------|--10------------14s--|--9------------10s--|
-------------------|---------------------|--------------------|
-------------------|---------------------|--------------------|
-------------------|---------------------|--------------------|
-------------------|---------------------|--------------------|


  H        H           W                   Q    Q    H           H.             
--------------------|-------------------|---------------------|---------------||
--7-----------------|--7----------------|--10----9----7-------|---------------||
-----------9--------|--6----------------|---------------------|--9-------6w---||
--------------------|-------------------|---------------------|---------------||
--------------------|-------------------|---------------------|---------------||
--------------------|-------------------|---------------------|---------------||


SLIDE GUITAR (Bridge)

      W            H         Q      Q       W                 
E||------------|-------------------------|-------------------|
B||--15--------|---L--------10s----15----|-------------------|
G||------------|-------------------------|-------------------|
D||------------|-------------------------|-------------------|
A||------------|-------------------------|-------------------|
E||------------|-------------------------|-------------------|


  W                    Q       
-------------------|---------||
-------------------|---------||
-------------------|---------||
-------------------|---------||
-------------------|--15\----||
-------------------|---------||


SOLO

W(hole)                W(hole)             H.           Q(uarter)    
--------------------|-------------------|---------------------|
--14----------------|--L----------------|--10------------12s--|
--------------------|-------------------|---------------------|
--------------------|-------------------|---------------------|
--------------------|-------------------|---------------------|
--------------------|-------------------|---------------------|


  H.           Q       H        H           H        H         
--------------------|--------------------|--------------------|
--9------------10s--|--7-----------------|--10--------9-------|
--------------------|-----------9--------|--------------------|
--------------------|--------------------|--------------------|
--------------------|--------------------|--------------------|
--------------------|--------------------|--------------------|


  W                   H.            Q       H.           Q     
-------------------|---------------------|--------------------|
--7----------------|--10------------14s--|--9------------12s--|
-------------------|---------------------|--------------------|
-------------------|---------------------|--------------------|
-------------------|---------------------|--------------------|
-------------------|---------------------|--------------------|


  H        H           W                   Q    Q    H           H.             
--------------------|-------------------|---------------------|---------------||
--7-----------------|-------------------|--10----9----7-------|---------------||
-----------9--------|--6w---------------|---------------------|--9------------||
--------------------|-------------------|---------------------|---------------||
--------------------|-------------------|---------------------|---------------||
--------------------|-------------------|---------------------|---------------||



FILL IN in verse 2 (Western electric - Johnny Cash sound alike :P )
            Q   Q     H
-------------------|---------||
---------------3---|--0------||
-------------------|---------||
-----------4-------|---------||
-------------------|---------||
-------------------|---------||

FILL IN in solopiece 

           Q   Q     H               Q   Q     H          Q   Q    H 
--------------------|   |-------------------|---------------------|
-----------2---0----|   |------------2---0--|-------------2---0---|
--------------------|   |-------------------|--2------------------|
--------------------|4  |-------------------|---------------------|4
--------------------|   |-------------------|---------------------|
--------------------|   |-------------------|---------------------|

FILL IN in outro
            Q   Q     H
-------------------|---------||
---------------3---|--2------||
-------------------|---------||
-----------4-------|---------||
-------------------|---------||
-------------------|---------||
Suggest correction
comments
print report bad tab
guest
You may want to rate the tab now too:
select rating
Please do not post tabs as comments. Select "correction" instead!