Oops, an error
Loading. Please wait.

Strong Man Chords

916 views 18 this week
no commentswrite comment
1 2 3 4 5
please rate
add to favorites
launch autoscroll
font size
0
reset
transpose
0
reset
simplify chords
- display chords -
guitar tuner
Tab Pro tools
  • play this tab
  • loop segment
  • change instrument
  • show fretboard
  • metronome
Autoscroll
slow
fast
+/-
esc
set tempo
stop
Contributor
Tina Dico - Strong man
----------------------

Capo1              Fmaj7 x33210         G6 xx5430


Verse:
 Am      G6         Fmaj7    G6                Am      G6         Fmaj7    G6       
|------------------|----------------|         |------------------|----------------|
|--1---------------|---1------------|         |--1---------------|---1------------|
|----2-2s4-4-4h5p0-|-----2-2s4-4h5p0|   or    |----2-2s4-4-4h5p0-|-----2-2s4-4s2p0|
|------------------|-3--------------|         |------------------|-3--------------|
|-0----------------|----------------|         |-0----------------|----------------|
|------------------|----------------|         |------------------|----------------|

If you play with picking to play G6 just slide up to 4th fret with your ring (on Am) or middle
finger (on Fmaj7) and use your pinky finger to hammer on 3rd string.

Chorus can be strummed or played with:

 Fmaj7                           Dm                              Am
|---------------|---------------|---------------|---------------|----------------|
|-----1---------|-----1---------|-----3---------|-----3---------|-----1----------|
|---2-----2---2-|---2-----2---2-|---2-----2---2-|---2-----2---2-|---2-----2---2--| and so on...
|-3---------3---|-3---------3---|-0---------0---|-0---------0-- |-----------2----|
|---------------|---------------|---------------|---------------|-0--------------|
|---------------|---------------|---------------|---------------|----------------|


Verse1:           Am G6     Fmaj7 G6
        A strong hand, a strong hand
                   Am G6  Fmaj7 G6
        So I don’t fall
                  Am G6     Fmaj7   G6
        A strong man,  a strong man
                          Am  G6  Fmaj7 G6
        To make me feel small
            Am                 G6           Fmaj7             G6
        His muscles chase each other up and down his forceful arm
           Am         G6      Fmaj7             G6
        Genetic confidence behind his magnetic calm
                  Am G6    Fmaj7 G6
        A strong man, a strong man
                 Am     G6  Fmaj7 G6
        To take care of all

Chorus:        Fmaj7
        But if no man is an island
                Dm
        Then no woman is his yacht
               Am
        And no man is stronger than his fear
           G
        To lose the one he loves
               Fmaj7
        And if I should leave tomorrow
                 Dm
        He would surely be destroyed
              Am
        And crumble like a hopeless child
              G
        Who’s lost his favourite toy
        C  G  Fmaj7
        I
              Fmaj7           G         Am G6 Fmaj7 G6
        Oh, I hate to see a grown man cry

Verse2:          Am             G6                Fmaj7      G6
        There’s nothing in the world he couldn’t teach you about
           Am               G6                 Fmaj7           G6
        He always puts his weight behind and shows no sign of doubts
                  Am G6    Fmaj7  G6
        A strong man, a strong man
                  Am G6    Fmaj7  G6
        A strong man, a strong man
             Am   G6       Fmaj7 G6
        A strong hand, a strong hand
            Am            G6    Fmaj7  G6
        To make me feel small

Chorus:         Fmaj7
        But if no man is an island
                Dm
        Then no woman is a bridge
                 Am
        And his love will take him nowhere
               G
        If he doesn’t know where she is
               Fmaj7
        And if I should leave tomorrow
                  Dm
        He would surely be destroyed
              Am
        And crumble like a hopeless child
               G
        Who’s lost his favourite toy
        C  G  Fmaj7
        I
               Fmaj7          G         Am G6 Fmaj7 G6
        Oh, I hate to see a grown man cry

-----------------------------------------------------------------------------------
Tabbed in May 2014.    Hope you enjoy it.  Joern
Send any corrections or comments to:    MCWZQQGXYUHK@spammotel.com
comments
We did not receive enough feedback on this tab! Please rate:
print report bad tab
1 2 3 4 5
I want to post or [tab]
guest
You may want to rate the tab now too:
select rating
Please do not post tabs as comments. Select "correction" instead!