Oops, an error
Loading. Please wait.

Warm Sand Tab

34 views 1 this week
no commentswrite comment
1 2 3 4 5
2 more votes to show rating
add to favorites
launch autoscroll
font size
0
reset
how to read this tab
guitar tuner
Autoscroll
slow
fast
+/-
esc
set tempo
stop
Help us to improve Ultimate-Guitar.com Take our survey!
×
Author
Difficulty
Capo
intermediate
6th fret
Tina Dico - Warm Sand (Acoustic Version)

DADGAD Tuning
Capo 6

Chords:

D:         A:        C:         G9:         Bb9:       C9:         D#:         F:       G:       Cm:
   
D |-0-|   D |-0-|    D |-0-|    D |-0-|     D |-0-|    D |-0-|     D |-0-|    D |-0-|    D |-0-|    D |-0-|
A |-0-|   A |-0-|    A |-3-|    A |-0-|     A |-0-|    A |-0-|     A |-0-|    A |-0-|    A |-0-|    A |-4-|
G |-2-|   G |-0-|    G |-0-|    G |-3-|     G |-3-|    G |-5-|     G |-0-|    G |-0-|    G |-0-|    G |-0-|
D |-0-|   D |-2-|    D |-1-|    D |-0-|     D |-3-|    D |-5-|     D |-1-|    D |-3-|    D |-5-|    D |-5-|
A |-0-|   A |-0-|    A |-3-|    A |-5-|     A |-1-|    A |-3-|     A |-1-|    A |-3-|    A |-5-|    A |-3-|
D |-0-|   D |---|    D |---|    D |-5-|     D |---|    D |---|     D |-1-|    D |-3-|    D |-5-|    D |---|



[Intro/Verse]:

D|-------------------------------|---------------------------------|--------------------------------------|
A|-------------------------------|---------------------------------|--------------------------------------|
G|-----------0-------------0-----|------------0------------0-------|------------3------------3------------|
D|--------3------------3-----3---|-------3------------3--------0---|--------0------------0--------0-------|
A|-------------------------------|--3-------------3----------------|--------------------------------------|
D|----0----------0---------------|---------------------------------|--5--------------5--------------------|

D|-----------------------------------------|
A|-----------------------------------------|
G|------------3----------------5-----------|
D|--------0----------------0------0--------|  x3
A|-----------------------------------------|
D|----5-----------(5)~7--------------------|  



[Bridge]:

D|-------------------------------|-----------------------------------|------------------------------------|
A|-------------------------------|-----------------------------------|------------------------------------|
G|-------------0-----------0-----|------------0---------------0------|---------------0------------0-------|
D|--------3------------3------3--|-------3-------------3----------3--|----------3-------------3--------0--|
A|-------------------------------|--1------------1-------------------|--(1)~3--------------3--------------|
D|----0------------0-------------|-----------------------------------|------------------------------------|

D|--------------------------------------|-----------------------------------|-----------------------------|
A|--------------------------------------|-----------------------------------|-----------------------------|
G|---------------3----------------3-----|---------------0------------0------|--------0------------0-------|
D|---------0---------------0---------0--|-----------3------------3------3---|-----3----------3--------3---|
A|--------------------------------------|-----------------------------------|-1----------1----------------|
D|-----5-------------5------------------|----0---------------0--------------|-----------------------------| 

D|--------------------------------------|--------------------------------------|
A|--------------------------------------|--------------------------------------|
G|----------------0------------0--------|--------------0---------------0-------|
D|-----------3------------3--------3----|-------3-----------------3--------0---|
A|---(1)~3-------------3----------------|--3----------------3------------------|
D|--------------------------------------|--------------------------------------|


Intro

(Verse)
You held the door
Looking over your shoulder
Face to the floor
It was already over

(Bridge)
They took a good look at you
They knew that you couldn't follow through
Just stood there and laughed at you
What could I do?

Refrain:

D         A                  C
Warm sand underneath my feet

            G9
No promises left for you to keep

D       A                    C    
Fortune smiling back at me

               G9
Forgetting the things that couldn't be


(Verse)
I pulled at your dress
But you took no notice
You left me to guess
Your desperate motives

(Bridge)
Left here as unfamiliar eyes
Held you and pushed me aside
Aching with blame I
Watched from inside

Refrain:

D         A                     C
Warm sand underneath my feet

            G9
No promises left for you to keep

D       A                     C
Fortune smiling back at me
 
               G9
Forgetting the things that couldn't be

     Bb
The things that might have been

     C9                             Cm      
The things that should have beeeeeeeeen

F       G          F
     Oh yeeeaaah

D#                    F            
    It's all I'd ever dream of

D#                    F
    It's all I'd ever hope to touch whenever I'd reach out


Refrain:

D         A                       C
Warm sand underneath my feet

            G9             
No promises left for you to keep

D        A                       C
Fortune smiling back at me

              G9
Forgetting

D         A                      C
Warm sand underneath my feet

            G9
No promises left for you to keep

D        A                      C
Fortune smiling back at me

               G9       
Forgetting the things that could have been

    Bb
The things that might have been

    C9
The things that should have been

  D
Oooohh
Suggest correction
Give kudos to tab author, rate the tab!
1 2 3 4 5
comments
print report bad tab
guest
You may want to rate the tab now too:
select rating
Wanna post a correction for this tab? Suggest correction