Oops, an error
Loading. Please wait.

Golden Eye chords

version 2
version 2

Whole song

Interactive

1,555 views 33 this week
3 commentsread comments
1 2 3 4 5
x 5
add to favorites
×
Save as Personal and add changes to this tab that will be seen only by you. Learn more ›
×
You can save this tab as Personal to edit and correct it or add notes. All changes will be seen only by you. Learn more »
launch autoscroll
font size
0
reset
transpose
0
reset
simplify chords
display chords
guitar tuner
edit
Autoscroll
slow
fast
+/-
esc
set tempo
stop
Strumming
There is no strumming pattern for this song yet. and get +5 IQ
Video https://www.youtube.com/watch?v=4hGQ97tCTOs

Tina Turner - Golden Eye

No Capo

[Chords]
     C#m7b5     F#m7   E5   F#5
e|----0----------2-----x----x---------------------------|
B|----2----------2-----x----x---------------------------|
G|----0----------2-----x----x---------------------------|
D|----2----------2-----x----x---------------------------|
A|----4----------2-----2----4---------------------------|
E|----0----------2-----0----2---------------------------|

[Intro]

   E5  F#5                                                  
e|----------5-4---------5-7-|----------8-7--------------|
B|--------------------------|----------------------4-3--|
G|--------------------------|---------------------------|
D|-2-4-4-4------2-4-4-4-----|-2-4-4-4-----2-4-4-4-------|
A|--------------------------|---------------------------|
E|--------------------------|---------------------------|

e|--------------------------|---------------------------|
B|--------------------------|---------------------------|
G|--------------------------|---------------------------|
D|-2-4-4-4------2-4-4-4-----|-2-4-4-4-----2-4-4-4-------|
A|--------------------------|---------------------------|
E|--------------------------|---------------------------|
  


[Verse]
F#m             Bm7            F#m7 F#m                                              
See reflections on the water
F#m        Bm7                    F#m7  F#m               
More than darkness in the depths
F#m             Bm7               E        
See him surface in every shadow
               C#              F#m7  F#m                       
On the wind I feel his breath
                                                    

[Verse]
F#m          Bm7               F#m7 F#m        
Goldeneye I found his weakness
F#m              Bm7            F#m7 F#m         
Goldeneye he'll do what I please
F#m           Bm7                          
Goldeneye no time for sweetness
       E                          C#              Em  
But a bitter kiss will bring him to his knees


[Chorus]
Em             D         C#m7b5                         
You'll never know how I watched you
                            Em                        
From the shadows as a child
Em             D          C#m7b5    
You'll never know how it feels to be the one
              Em   Bm                                   
Who's left behind
Bm             Em                Bm                       
You'll never know the days, the nights,
                Em             F#7   Bm                                           
The tears, the tears I've cried
Bm          Em           F#7                                              
But now my time has come
     Bm               F# G    F#7    E5 F#5
And time, time is not on your side

E5 F#5

[Verse]
F#m                    Bm7            F#m7 F#m                    
See him move through smoke and mirrors
F#m               Bm7            F#m7 F#m               
Feel his presence in the crowd
F#m               Bm7               E                
Other girls they gather around him
                         C#              F#m7  F#m                  
If I had him I wouldn't let him out
                                                    

[Verse]
F#m            Bm7            F#m7 F#m                    
Goldeneye not lace or leather
F#m                    Bm7         F#m7 F#m           
Golden chains take him to the spot
F#m             Bm7             E                  
Goldeneye I'll show him forever
                           C#             Em    
It'll take forever to see What I've got


[Outro]
Em             D         C#m7b5                 
You'll never know how I watched you
                            Em                          
From the shadows as a child
Em             D          C#m7b5    
You'll never know how it feels to get so close
              Em   Bm                      
And be denied
Bm              Em         F#7  Bm            
It's a gold and honey trap
                    Em      F#7   Bm                        
I've got for you tonight
                           Em              F#7   Bm 
Revenge it's a kiss, this time I won't miss
Bm               F#           G  F#      
Now I've got you in my sights
        F#       G F#                  G F# 
With a goldeneye,    golden, goldeneye
                 G F#          G F#                           
With a goldeneye,    goldeneye

e|--0-2-2-2-----------------|---------------------------|
B|--------------------------|---------------------------|
G|--------------------------|---------------------------|
D|--2-4-4-4-----------------|---------------------------|
A|--------------------------|---------------------------|
E|--0-2-2-2-----------------|---------------------------|
                                                    

            
            
Suggest correction
Creating personal tab
Creating personal tab
You can edit any tab online and save it as your Personal.

You can edit, replace or remove any tab part or add personal notes – all changes will be seen only by you.

Personal tabs can be accessed anytime from any device, even offline.
Learn more »
comments
print report bad tab
3 comments total.
+1 reply
schoben 3,352 Jul 18, 2016 07:57 AM

great chords for that famous song!! Thank you!

0 reply
motoclangers [tm] 12,881 Sep 04, 2016 07:16 PM

Superb tab,great tune.

guest
You may want to rate the tab now too:
select rating
Wanna post a correction for this tab? Suggest correction