Oops, an error
Loading. Please wait.

Simply The Best chords

version 1
version 1

Whole song

Interactive

235,395 views 465 this week
3 commentsread comments
1 2 3 4 5
x 22
add to favorites
×
Save as Personal and add changes to this tab that will be seen only by you. Learn more ›
×
You can save this tab as Personal to edit and correct it or add notes. All changes will be seen only by you. Learn more »
launch autoscroll
font size
0
reset
transpose
0
reset
simplify chords
display chords
guitar tuner
backing track
0:00
0:00
edit
Autoscroll
slow
fast
+/-
esc
set tempo
stop
Author
Strumming
There is no strumming pattern for this song yet. and get +5 IQ
These tabs are only 4 notes long.  They are played during the chorus.
This is the F key version

Tuning:Both standard

e|---------------------------------------------------------------------------|
B|----3-2--------------------------------------------------------------------|
G|--0------------------------------------------------------------------------|
D|3--------------------------------------------------------------------------|
A|---------------------------------------------------------------------------|
E|---------------------------------------------------------------------------|

This the the G key version

e|---------------------------------------------------------------------------|
B|----1-0--------------------------------------------------------------------|
G|0-2------------------------------------------------------------------------|
D|---------------------------------------------------------------------------|
A|---------------------------------------------------------------------------|
E|---------------------------------------------------------------------------|

[Intro]

F


[Verse]

  F
I call you when I need you, my heart's on fire 
    F
You come to me, come to me wild and wired 
                 Dm 
When you come to me 
                    Bb   Bb (ring)
Give me everything I need 
          F
Give me a lifetime of promises and a world of dreams 
Speak the language of love like you know what it means 
                 Dm
ohh, it can't be wrong 
                          Bb
Take my heart and make it stronger baby 
C,C,C,NC (strum loudly)


[Chorus]

                      F   
You're simply the best, better than all the rest 
            Dm                  C7 
Better than anyone, anyone I've ever met 
                  F    
I'm stuck on your heart, I hang on every word you say 
         Dm                 C7        
Tear us apart, baby I would rather be dead 


[Verse]

             F
In your heart I see the stars of every night and every day 
In your eyes I get lost, I get washed away 
        Dm
Just as long as I'm here in your arms 
                Bb 
I could be in no better place 
C,C,C,NC


[Chorus]

                      F   
You're simply the best, better than all the rest 
            Dm                  C7 
Better than anyone, anyone I've ever met 
                  F    
I'm stuck on your heart, I hang on every word you say 
         Dm                 C7        
Tear us apart, baby I would rather be dead 


[Bridge]

Bb
 Each time you leave me I start losing control 
       Dm
You're walking away with my heart and my soul 
Bb
 I can feel you even when I'm alone 
C                   D
 Oh baby, don't let go

Key change to G

[Sax solo]

G,Em,D7


[Chorus]

               G                
You're the best, better than all the rest 
            Em                  D7    
Better than anyone, anyone I've ever met 
                  G            
I'm stuck on your heart, and hang on every word you say 
         Em                 D7   
Tear us apart, baby I would rather be dead
                   G (ring)  
Oh, You're the best...

            
            
Suggest correction
Creating personal tab
Creating personal tab
You can edit any tab online and save it as your Personal.

You can edit, replace or remove any tab part or add personal notes – all changes will be seen only by you.

Personal tabs can be accessed anytime from any device, even offline.
Learn more »
comments
print report bad tab
3 comments total.
0 reply
pyzer 31 Apr 27, 2011 12:48 PM

e|---------------------------------------------------------------------------|
B|----3-2--------------------------------------------------------------------|
G|--0------------------------------------------------------------------------|
D|3--------------------------------------------------------------------------|
A|---------------------------------------------------------------------------|
E|---------------------------------------------------------------------------|

+2 reply
pyzer 31 Apr 27, 2011 12:49 PM

opps sorry ment to put this

e|---------------------------------------------------------------------------|
B|------------------------------------------------------------------------|
G|--0-3-2----------------------------------------------------------------------|
D|3--------------------------------------------------------------------------|
A|---------------------------------------------------------------------------|
E|---------------------------------------------------------------------------|

0 reply
sandyhmartin1 10 Nov 03, 2013 01:00 AM

Nowhere near, sorry

guest
You may want to rate the tab now too:
select rating
Wanna post a correction for this tab? Suggest correction