Oops, an error
Loading. Please wait.

Pass Out Tab

version 1
version 1

Whole song

14,412 views 9 this week
2 commentsread comments
1 2 3 4 5
2 more votes to show rating
add to favorites
launch autoscroll
font size
0
reset
how to read this tab
guitar tuner
×
Best way to learn
"Pass Out"
Autoscroll
slow
fast
+/-
esc
set tempo
stop
Author
Difficulty
novice
Tinie Tempah - Pass Out
standard tuning

Lead Riff
e|--------------------------------|
B|----------------1-1-------------|
G|--------------------3-3-3-3-----|

D|3-3-3-3-3-3-1-1-------------1-1-|
A|--------------------------------|

E|--------------------------------|

or

e|-------------------------------------------|
B|-----------------------9-9-----------------|
G|---------------------------10-10-10-10-----|

D|-10-10-10-10-10-10-8-8-----------------8-8-|

A|-------------------------------------------|

E|-------------------------------------------|

verses
e|----------------------------------|
B|----------------------------------|
G|----------------------------------|

D|----------------------------------|

A|-----------------4-4-4-4-4-4-4-4--|

E|-1-1-1-1-1-1-1-1------------------|



Bass Part near the end of the song
e|---------------------------|
B|---------------------------|
G|---------------------------|

D|--------3------------------|

A|----------3-1-4------------|

E|-1-1-1---------------------|


http://www.tinietempah.com/

Suggest correction
Give kudos to tab author, rate the tab!
1 2 3 4 5
comments
print report bad tab
2 comments total.
0 reply
theTABASCUShero 37 Mar 18, 2010 11:01 AM

Actually balls.

0 reply
Shane62 77 Apr 02, 2010 07:15 AM

I'm trying to get a correction, since the original is so off.

Completely scrap the first bit and replace it with:

Actual Riff
e|--------------------------------------------|
B|------------------------9-8-----------------|
G|----------------------------10~-------------|

D|-10-10-10-10-10-10-8-10-----------------8-9-|
 Repeat
A|--------------------------------------------|

E|--------------------------------------------|

Then:

Verses
e|----------------------------------------|
B|----------------------------------------|
G|----------------------------------------|

D|-----------------11-11-11-11-11-11-11-11|
A|-8-8-8-8-8-8-8-8-
-----------------------|

E|----------------------------------------|

"Bass Part near the end of the song"

e|---------------------------|
B|---------------------------|
G|---------10----------------|

D|------------10-8-11--------|

A|-88888---------------------|

E|---------------------------|

Then Repeat the Actual Riff, play the whole song with Delay on, and a nice gain.

Give me a shout out on this correction, i spent quite a bit of time on it.

Shane62 :)

guest
You may want to rate the tab now too:
select rating
Wanna post a correction for this tab? Suggest correction