Oops, an error
Loading. Please wait.

Cant Get A Read On You Tab

683 views 3 this week
2 commentsread comments
1 2 3 4 5
please rate
add to favorites
launch autoscroll
font size
0
reset
how to read this tab
guitar tuner
Autoscroll
slow
fast
+/-
esc
set tempo
stop
Help us to improve Ultimate-Guitar.com Take our survey!
×
Author
Difficulty
novice
Link to Tinted Windows' website: http://www.tintedwindowsmusic.com/

Okay, first time doing a tab but I'm literally 100% sure I'm correct. I had to do it by
but it was really easy. But for those that can't do that, I'm writing this up..since no
else has :P Now, this would be considered just guitar 2 the entire time, I suppose...but 
weird stuff you hear that goes with it I can't figure out, so this will have to do,
I highly suggest you read the entire tab, or else some parts might not make sense.

And btw, x is where you just hold your finger on top of the string and still pluck it,
don't hold it down actually ON the fretboard. And i don't know if this is the official
to tab it but \ for me would be "slide up" and / would be "slide down".

Intro
e|--------------------------------------------------------------------------|
B|--------------------------------------------------------------------------|
G|9------5------12------4------9--------------------------------------------|
D|9-(x8)-5-(x8)-12-(x4)-4-(x4)-9-(x8)-(repeat for the rest of the intro)----|
A|7------3------10------2------7--------------------------------------------|
E|--------------------------------------------------------------------------|

Repeat the above for this verse. The above I'll call "Verse 1":
"Wanna get to know you but you're oh so distant, I can't get a read on you.
Got so much to show you but you're so resistant, I can't get a read on you."

Then (this part I will call "Verse 2"):
"Tell me whatcha like, tell me watcha don't. Tell me watcha might do, tell me watcha
Tell me watcha want, tell me watcha need. Tell me won't you please tell me cause I can't
a read on you."
e|--------------------------------------------------------------------------|
B|--------------------------------------------------------------------------|
G|9-9--9-9-9-9-------------------------12------7-------12----------4--------|
D|9-9--9-9-9-9-(repeat this rhythm for 12-and)-7,-then-12-(x2)-and-4-(x2)---|
A|7-7--7-7-7-7-------------------------10------5-------10----------2--------|
E|--------------------------------------------------------------------------|

Repeat for 7/9/9 and 10/12/12, then play 5/7/7 x8, and then 2/4/4 x8. You can
2/4/4 with 6/8/8, if you like. But 2/4/4 fits to the actual song.

Then for Chorus:

e|--------------------------------------------------------------------------|
B|--------------------------------------------------------------------------|
G|9------5------12------7---------------------------------------------------|
D|7-(x8)-5-(x8)-12-(x8)-7-(x8)-(repeat)-------------------------------------|
A|7------3------10------5---------------------------------------------------|
E|--------------------------------------------------------------------------|

Verse 1
Everything I say you got the same expression, I can't get a read on you.
Trying to find a way, you give me no direction, I can't get a read on you.
Verse 2
Tell me what you hate, tell me what you love.
Tell me what you fear, tell me what you're dreaming of.
Tell me what you got, tell me what you need.
Tell me won't you please tell me please cause I can't get a read on you.

Chorus

Bridge:
I could never quite figure this part out, but I know it involves

e|--------------------------------------------------------------------------|
B|--------------------------------------------------------------------------|
G|4--6-6-6-6-x-x-x-x--------------------------------------------------------|
D|4--6-6-6-6-x-x-x-x--------------------------------------------------------|
A|2--4-4-4-4-x-x-x-x--------------------------------------------------------|
E|--------------------------------------------------------------------------|

Solo (one of only two solos I've ever gotten right xD):

e|--------------------------------------------------------------------------|
B|--------------------------------------------------------------------------|
G|--------------------------------------------------------------------------|
D|14-13-14-13-14-13-14-13-14-14-17-14-12-12-12-13-13-14--14-13-14-13-14-13--|
A|--------------------------------------------------------------------------|
E|--------------------------------------------------------------------------|

e|--------------------------------------------------------------------------|
B|--------------------------------------------------------------------------|
G|--------------------------------------------------------------------------|
D|14-13-14-\19-17-16-17-12-12-12-13-14-/------------------------------------|
E|--------------------------------------------------------------------------|

Verse 1
Verse 2

"Intro"

End on:

e|--------------------------------------------------------------------------|
B|--------------------------------------------------------------------------|
G|7------4------9-----/-----------------------------------------------------|
D|7-(x2)-4-(x2)-9-(x1)/-----------------------------------------------------|
A|5------2------7-----/-----------------------------------------------------|
E|--------------------------------------------------------------------------|
Suggest correction
What's this?
You can suggest a correction to this tab. Community and Mods will review your correction and vote to approve or reject it.
comments
We did not receive enough feedback on this tab! Please rate:
print report bad tab
1 2 3 4 5
2 comments total.
0 reply
Islandgoddess21 11 wrote on March 17 2010, 10:23 pm

I'm so happy that someone posted a Tinted Windows tab! YAY!!! Loved the tab btw. Could you try tabing "Back with you?" That's my fave song on the ablum.

0 reply
boknoykatok 216 wrote on April 25 2010, 11:40 am

oh shit... why dont people tab tinted windows? thank you.. even though this is not my favorite song... haha.. if you tab "Dead Serious" that is the best song for me... :D

guest
You may want to rate the tab now too:
select rating
Please do not post tabs as comments. Select "correction" instead!