Oops, an error
Loading. Please wait.

Mira Nena Bass Tab

46 views 1 this week
no commentswrite comment
1 2 3 4 5
3 more votes to show rating
add to favorites
launch autoscroll
font size
0
reset
guitar tuner
×
Best way to learn
"Mira Nena"
Autoscroll
slow
fast
+/-
esc
set tempo
stop
Hola a todos!!!

aqui les va el TAB para Bajo, espero que les guste...

Empieza la guitarra, el teclado y una bateria sencilla,luego
entran los demas instrumentos

*RIFF 1

G-----------------------------------------------------|
D-----------------------------------------------------|
A---------------5-5-5---5-5--7-7-7---7-7--------------|
E--5-5-5---5-5----------------------------5-5-5---5-5-|

asi va hasta la parte donde dice:

"Solo quiero escapar, de este miedo maldito
 que me quiere llevar a un abismo..."

"Donde no estas" : esta parte va asi

*RIFF 2

G---------------------------------------------------------|
D----------------------------------------------5/7--------|
A---------------5-5-5---5-5--7-7-7---7-7-----------10-8-7-|
E--5-5-5---5-5----------------------------5-5-5-----------|

*CORO

G------------------------------------------------------------------|
D------------------------------------------------------------------|
A----------------------------------5-5-5-5-5-5-5-5-7-7-7-7-7-7-7-7-| x 2
E--5-5-5-5-5-5-5-5-5-5-5-5-5-5-5-5---------------------------------|

Luego va:

*RIFF 1 x 1

Despues Queda Solo Teclado y Bateria, y Sigue

*RIFF 1 x 2
*RIFF 2 x 1
*CORO x 4  "En la ultima Vuelta de este coro, al final va
 un corte asi:"

*CORTE

G-------------|
D-------------|
A-------------|
E--5-5-5-5-5--|

*RIFF 3

G---------------------------------------------------------------------|
D---------------------------------------------------------------------|
A--17/5-5-5-5-5-5-5-5---------------------------------3-3-3-3-3-3-3-3-|
E---------------------5-5-5-5-5-5-5-5-3-3-3-3-3-3-3-3-----------------|

G--------------------|
D--------------------|
A--5-5-5-5-5-5-5-5/7-|
E--------------------|

Aqui solo entra la guitarra y en el Min. 2:33 que dice
"Un dia mas sin ver" apenas digan UN, va:

*RIFF 4

G--------12-14-12----------|
D--10/14----------14-------|
A--------------------------|
E--------------------------|

y en la otra parte que dice "No me deja Vivir" va lo mismo

*RIFF 4

y Luego

*CORO x 6
*CORTE
*RIFF 3

Bueno, espero les guste esta es mi primera colaboracion, tengo
muchas mas que las ire enviando mientras pueda...

Cualquier comentario, duda, inquietud o peticion escriban a:
Wireblujo@
Suggest correction
Give kudos to tab author, rate the tab!
1 2 3 4 5
comments
print report bad tab
guest
You may want to rate the tab now too:
select rating
Wanna post a correction for this tab? Suggest correction