Oops, an error
Loading. Please wait.

Mira Nena Tab

47 views 1 this week
no commentswrite comment
1 2 3 4 5
3 more votes to show rating
add to favorites
launch autoscroll
font size
0
reset
how to read this tab
guitar tuner
×
Best way to learn
"Mira Nena"
Autoscroll
slow
fast
+/-
esc
set tempo
stop
John (Gato) Alban (johnfreddy85@

Hola, esta es mi correcion de esta cancion ya q esta en
la escala pero le hace falta algunas cositas...
El solo se los debo :p...

Los acordes para guitarra van asi:
     A5      D5       E5
e|-------|--------|--------|
B|-------|--------|--------|
G|-------|--------|--------|
D|---7---|---7----|---9----|
A|---7---|---5----|---7----|
E|---5---|--------|--------|

Intro en teclado: (este intro lo puedes hacer en guitarra limpia)
Am - Dm - E - Am

Intro en guitarra: (esta va con distorcion)
A5 - D5 - E5- A5

A5
Que tristeza me da,
D5
Que me hagas pensar,
E5
Que yo pueda aguantar,
A5
Que te vayas de acá...
Y aunque no pueda estar
D5
Pretendiendo tu amor,
E5
Me duele pensar
A5
Que eres una ilusión...

Aqui va el 1er riff:
Riff 1
e|------|------|--------|-------| x2
B|------|------|--------|-------|
G|------|------|--------|-------|
D|------|------|--------|-------|
A|----5-|----7-|5-5-8---|----5--|
E|-7-7-7|-8-8-8|------7-|-7-7-8-|

A5
Y aunque no pueda estar
D5
Yo rogando tu amor
E5
Y aunque no pueda estar
A5
Inventando pasión,
Solo quiero escapar de este
D5
Miedo maldito
    E5
Que me quiere llevar a un

Aqui va el 2do riff:
Riff 2
e|-----------------|
B|-----------------|
G|-----------------|
D|-----------------|
A|-9/10-9-7-5-4----|
E|-----------------|

A5
Abismo donde no estas...

Coro:
A5
Mira, mira nena mira, mira que,
D5
Ya no puedo estar
E5
Un dia mas sin ver,
A5
Esa mirada absurda que me amarra a ti,
D5
No me dejar soñar,
E5                  A5 - D5 - E5 - A5
No me deja vivir...

Aca se queda solo el teclado (en este caso la guitarra) haciendo
estos acordes.

Am
Y aunque te quiera mas
Dm
Ya no puedo aguantar
E
Ya todo terminó
Am
Y ya no puedo mas...

Aca entra la guitarra con distorcion.

A5
Quiero poder saber
D5
Que se siente olvidar
E5
Que se siente perder
A5
Una gran ilusión...

Riff 1: igual al primero

A5
Y aunque no pueda estar
D5
Yo rogando tu amor
E5
Y aunque no pueda estar
A5
Inventando pasión
Solo quiero escapar
D5
De este miedo maldito
E5
Que me quiere llevar a un abismo

Riff 2
A5
Donde no estas...

Coro:
A5
Mira, mira nena mira, mira que,
D5
Ya no puedo estar
E5
Un dia mas sin ver,
A5
Esa mirada absurda que me amarra a ti,
D5
No me dejar soñar,
E5
No me deja vivir...

Mira, mira nena mira, mira que,
Ya no puedo estar un dia mas sin ver,
Esa mirada absurda que me amarra a ti,
                                    Am
No me dejar soñar, no me deja vivir...

Aqui entra una guitarra haciendo:

e|---------------------------------------------------|
B|---------------------------------------------------|
G|---------------------------------------------------|
D|---------------------------------------------------|
A|-9--9-9-9-10-9-7--7-7-7--9h7-5--5-5-5/10--10-10-10-|
E|---------------------------------------------------|

e|---------------------------------------------------|
B|---------------------------------------------------|
G|---------------------------------------------------|
D|------------------------------------------------14-|
A|-12--12-12-12--12-12-14----14-15-14-12-14----------|
E|---------------------------------------------------|

G5
Y aunque no pueda estar
C5
Yo rogando tu amor
D5
Y aunque no pueda estar
G5
Inventando pasion
  D5                           E5
Y aunque no pueda estar yo sin ti...

Coro:
Mira, mira nena mira, mira que,
Ya no puedo estar un dia mas sin ver,
Esa mirada absurda que me amarra a ti,
No me dejar soñar, no me deja vivir...

Mira, mira nena mira, mira que,
Ya no puedo estar un dia mas sin ver,
Esa mirada absurda que me amarra a ti,
No me dejar soñar, no me deja vivir...

el solo se los debo pero busquenlo
por la escala de la cancion

Am - Dm - E - Am

Coro:
Mira, mira nena mira, mira que,
Ya no puedo estar un dia mas sin ver,
Esa mirada absurda que me amarra a ti,
                                    A5
No me dejar soñar, no me deja vivir...

e|---------------------------------------------------|
B|---------------------------------------------------|
G|---------------------------------------------------|
D|---------------------------------------------------|
A|-9--9-9-9-10-9-7--7-7-7--9h7-5--5-5-5/10--10-10-10-|
E|---------------------------------------------------|

e|------------------------------------------|
B|------------------------------------------|
G|------------------------------------------|
D|------------------------------------------|
A|-12--12-12-12--12-12-14----14-15-14-12-14-|
E|------------------------------------------|

Y aunque no pueda estar

Yo rogando tu amor

Y aunque no pueda estar

Inventando pasion

Y aunque no pueda estar yo sin ti...

Alguna duda o si quieren el solo me avisan
Suggest correction
Give kudos to tab author, rate the tab!
1 2 3 4 5
comments
print report bad tab
guest
You may want to rate the tab now too:
select rating
Wanna post a correction for this tab? Suggest correction