Oops, an error
Loading. Please wait.

Beat Fly Tab

63 views 1 this week
no commentswrite comment
1 2 3 4 5
please rate
add to favorites
launch autoscroll
font size
0
reset
how to read this tab
guitar tuner
Tab Pro tools
  • play this tab
  • loop segment
  • change instrument
  • show fretboard
  • metronome
Autoscroll
slow
fast
+/-
esc
set tempo
stop
Contributor
Difficulty
intermediate
---------------------------------------------------------------------------------
                               BEAT FLY - Tiny Danza
                                   tinydanza.com
                                    bentpenny.ca

-------------------------------------------------------------------------------
Tabbed by: Matt Russo
Email: russomatt@hotmail.com

Tuning: Standard

Intro:
e|---------13-------------------11---9-8-----------------------------------|--|
B|-10---------10-------9-----------9----8---11----12-13-----------11---8---|--|
G|-10-10---------10------10---------------8-----8-------10--10----8----8---|--|
D|-10---10----------10-------10---------------------------11------10---8---|--|
A|----------------------------------------------------------------11---10--|--|
E|-------------------------------------------------------------------------|--|
(sweep chords and let notes ring)

Verse 1:
e|---------------------------------------------------------------------------|
B|-6h8-6h8-8b9------9br8-----6-------6h8-6h8-8b9------9br8-----6-----6-------|
G|--------------------------------------------------------------8b9----------|
D|---------------------------------------------------------------------------|
A|---------------------------------------------------------------------------|
E|---------------------------------------------------------------------------|
(starts halfway through verse)

Chorus:
e|-------13-13-13-13-13-13-13-13-13-13-13-13-13-13-13-13-13---------------|--|
B|-------13-13-13-13-13-13-13-13-13-13-13-13-13-13-13-13-13---------------|--|
G|-------10-10-10-10-10-10-10-10-10-10-10-10-10-10-10-10-10---------------|--|
D|-------10-10-10-10-10-10-10-10-10-10-10-10-10-10-10-10-10---------------|--|
A|------------------------------------------------------------------------|--|
E|------------------------------------------------------------------------|--|
(starts in 4th bar of chorus, let last chord ring)

e|-------13-13-13-13-13-13-13-13-13-13-13-13-13-13-13-13-13---------------------|
B|-------13-13-13-13-13-13-13-13-13-13-13-13-13-13-13-13-14-14---14-13----------|
G|-------10-10-10-10-10-10-10-10-10-10-10-10-10-10-10-10-15----15------13-12----|
D|-------10-10-10-10-10-10-10-10-10-10-10-10-10-10-10-10---------------------13-|
A|------------------------------------------------------------------------------|
E|------------------------------------------------------------------------------|

e|--------------------------|--|--|--|
B|-11/-13-x-13---x-13--13---|--|--|--|
G|-x-/-x--x-x----x-x---x----|--|--|--|
D|-8-/-10-x-13---x-10--10---|--|--|--|
A|--------------------------|--|--|--|
E|--------------------------|--|--|--|

Interlude:
e|----13-------11--9-8---------------------------------|
B|----------9-----------11-12-12b13br12----11----8-----|
G|-10----------------------------------10-----------10-|
D|-----------------------------------------------------|
A|-----------------------------------------------------|
E|-----------------------------------------------------|
(let last note ring and feedback in verse 2)

Verse 2:
e|-------------------------------------------------------------6-------------|
B|-6h8-6h8-8b9------9br8-----6-------6h8-6h8-8b9------9br8-----------9--8--6-|
G|---------------------------------------------------------------------------|
D|---------------------------------------------------------------------------|
A|---------------------------------------------------------------------------|
E|---------------------------------------------------------------------------|
(starts halfway through verse)

Lay out for singing verse
Play Chorus (with extra progression of octaves)

Breakdown:
        Dbmaj7          Bbm                     Fm
e|-4-----------6-----------1---------------------|--|
B|-6-----------6-----------1---------------------|--|
G|-5-----------6-----------1---------------------|--|
D|-6-----------8-----------3---------------------|--|
A|-4-----------8-----------3---------------------|--|
E|-------------6-----------1---------------------|--|
(sweep each chord)

Solo on: | F    | Dbmaj7    | Ebmaj7    | Bbm7    | Abmaj7  Abmaj7/G|

Outro:
e|----13-------11--9-8---------------------------------|
B|----------9-----------11-12-12b13br12------11----8---|
G|-10-----------------------------------10-------------|
D|-----------------------------------------------------|
A|-----------------------------------------------------|
E|-----------------------------------------------------|

e|----13-------11--9-8------------------------------|
B|----------9-----------11-12-13--------------------|
G|-10-------------------------10--------------------|
D|----------------------------11--------------------|
A|--------------------------------------------------|
E|--------------------------------------------------|

************************************

| /   slide up
| h   hammer-on
| x   Mute note
| b   Bend
| br  Bend release
| |--|Repeat previous bar/phrase
************************************
comments
We did not receive enough feedback on this tab! Please rate:
print report bad tab
1 2 3 4 5
I want to post or [tab]
guest
You may want to rate the tab now too:
select rating
Please do not post tabs as comments. Select "correction" instead!