Oops, an error
Loading. Please wait.

Movies Bass Tab

13 views 1 this week
no commentswrite comment
1 2 3 4 5
3 more votes to show rating
add to favorites
launch autoscroll
font size
0
reset
guitar tuner
Autoscroll
slow
fast
+/-
esc
set tempo
stop
Help us to improve Ultimate-Guitar.com Take our survey!
×
Author
Difficulty
intermediate
[Intro]

G|------------------|--------------------|-------------------|------------------|----------------------|
D|------------------|--------------------|-------------------|------------------|----------------------|
A|------------------|--------------------|-------------------|------------------|--11-11-11-11-11---9--|
E|------------------|--------------------|-------------------|----12------9-----|----------------------|

[Verse]

G|------------------|--------------------|-------------------|------------------|----------------------|
D|------9-----------|------9-------------|------9------------|------------------|----------------------|
A|--11-----11----9--|--11-----11----9----|--11-----11----9---|------------------|--11-11-11-11-11---9--| x2
E|------------------|--------------------|-------------------|----12------9-----|----------------------|
(Can we please turn on a movie...)

G|------------------|--------------------|-------------------|------------------|
D|------------------|--------------------|-------------------|------------------|
A|--7----9----11----|--------------------|--7----11----9-----|------------------|
E|------------------|--------------------|-------------------|------------------|
(There is a difference between...)


[Chorus]

G|-------------------|--------------------|-------------------|-------------------|
D|-------------------|---------4----------|-------------------|---------4---------|
A|--7-7-7-7-7-7-7-7--|------------6--6----|--7-7-7-7-7-7-7-7--|------------6--6---|
E|-------------------|--4-4-4-------------|-------------------|--4-4-4------------|
(Because now I feel so scared...)

G|-------------------|--------------------|-------------------|-------------------|
D|-------------------|---------4----------|-------------------|-------------------|
A|--7-7-7-7-7-7-7-7--|------------6--6----|-------------------|-------------------|
E|-------------------|--4-4-4-------------|--7-7-7-7-7-7-7-7--|--9-9-9-9-6-6-6-6--|

G|-------------------|--------------------|-------------------|-------------------|
D|-------------------|---------4----------|-------------------|---------4---------|
A|--7-7-7-7-7-7-7-7--|------------6--6----|--7-7-7-7-7-7-7-7--|------------6--6---|
E|-------------------|--4-4-4-------------|-------------------|--4-4-4------------|
(Can we please turn on a movie...)

G|-------------------|--------------------|-------------------|-------------------|
D|-------------------|---------4----------|-------------------|-------------------|
A|--7-7-7-7-7-7-7-7--|------------6--6----|-------------------|-------------------|
E|-------------------|--4-4-4-------------|--7-7-7-7-7-7-7-7--|--9-9-9-9-6-6-6-6--|


[Bridge]

G|------------------|--------------------|-------------------|------------------|
D|------------------|--------------------|-------------------|------------------|
A|--7----9----11----|--------------------|--7----11----9-----|------------------|
E|------------------|--------------------|-------------------|------------------|
(There is a difference between...)

G|----------4-------|----------9---------|-----------9-------|----------9-------|
D|-------6----------|-------9------------|-------11----------|-------9----------|
A|------------------|--------------------|-------------------|------------------| x3
E|--4---------------|--7-----------------|--9----------------|--7---------------|
(I am a poet walking quiet...)

G|-------------------|--------------------|
D|-------------------|--------------------|
A|-------------------|--------------------|
E|-------------------|--------------------|
(There is a difference between...)


[Chorus]

G|----------------------------|---------------------------|
D|----------------------------|-------------4-4-4---------|
A|--7-7-7-7-7--7-7-7-7-7-7-7--|--------------------6-6-6--| x3
E|----------------------------|--4-4-4-4-4----------------|
(Can we please turn on a movie...)

G|----------------------------|---------------------------|
D|----------------------------|---------------------------|
A|----------------------------|---------------------------|
E|--7-7-7-7-7--7-7-7-7-7-7-7--|--9-9-9-9-9--6-6-6-6-6-6-6-|

G|----------------------------|---------------------------|
D|----------------------------|-------------4-4-4---------|
A|--7-7-7-7-7--7-7-7-7-7-7-7--|--------------------6-6-6--| x3
E|----------------------------|--4-4-4-4-4----------------|
(Can we please turn on a movie...)

G|-------------------|--------------------|
D|-------------------|--------------------|
A|-------------------|--------------------|
E|--7----------------|--------------------|


Suggest correction
Give kudos to tab author, rate the tab!
1 2 3 4 5
comments
print report bad tab
guest
You may want to rate the tab now too:
select rating
Wanna post a correction for this tab? Suggest correction