Oops, an error
Loading. Please wait.

Vacation Bible School Tab

version 1
version 1

Whole song

Interactive

10,683 views 108 this week
1 commentread comment
1 2 3 4 5
excellent!
x 15
add to favorites
launch autoscroll
font size
0
reset
how to read this tab
guitar tuner
Tab Pro tools
  • play this tab
  • loop segment
  • change instrument
  • show fretboard
  • metronome
Autoscroll
slow
fast
+/-
esc
set tempo
stop
Contributor
Tuning
D A D G B E
Tiny Moving Parts
"Vacation Bible School"
This Couch is Long & Full of Friendship
2013 Kind of Like Records

Drop D
Capo on 2nd Fret




e|---------------------------------------------------------------------------|
b|-14-14-14-14-14-14-14-14-7-7-7-7-7-7-7-7-10-10-10-10-10-10-9-9-9-9-9-9-9-9-|
g|-xx-xx-xx-xx-xx-xx-xx-xx-x-x-x-x-x-x-x-x-xx-xx-xx-xx-xx-xx-x-x-x-x-x-x-x-x-|
d|-11-11-11-11-11-11-11-11-4-4-4-4-4-4-4-4-7--7--7--7--7--7--6-6-6-6-6-6-6-6-|
a| 12-12-12-12-12-12-12-12-5-5-5-5-5-5-5-5-9--9--9--9--9--9--7-7-7-7-7-7-7-7-|
D|---------------------------------------------------------------------------|

e|---------------------12~----------------12---|
b|------------------------------------------10-|
g|-------------9p2-6/7-------------9p2-6/7-----|
d|---7-9p2-6/7------------7-9p2-6/7------------|
a|--5--------------------5---------------------|
D|-4--------------------4----------------------|


e|---------------------------------------------------------------|
b|-14-14-14-14-14-14--7-7-7-7-7-7--10-10-10-10-10-10-9-9-9-9-9-9~|
g|---------------------------------------------------------------|
d|-11-11-11-11-11-11--4-4-4-4-4-4--7--7--7--7--7--7--6-6-6-6-6-6~|
a| 12-12-12-12-12-12--5-5-5-5-5-5--9--9--9--9--9--9--7-7-7-7-7-7~|
D|---------------------------------------------------------------|

e|-----------------------------------------------------------12--------------------12---|
b|-10-10-10-10-10-10-10-10-9-9-9-9-9-9-9-9-------------------------------------------10-|
g|----------------------------------------------------9p2-6/7--------------9p2-6/7------|
d|-7--7--7--7--7--7--7--7--6-6-6-6-6-6-6-6---7-9p2-6/7------------7-9p2-6/7-------------|
a|-9--9--9--9--9--9--9--9--7-7-7-7-7-7-7-7--5--------------------5----------------------|
D|-----------------------------------------4--------------------4-----------------------|

e|----------------------|
b|----------------------|
g|-------------9p2-6p2~-|
d|---7-9p2-6/7----------|
a|--5-------------------|
D|-4--------------------|

e|-4xx-4xx-4xx-4------7---2---4---2------------------------------|
b|-5xx-5xx-5xx-5-------5---5---5---5----5p2---10p9---10/12---2---|
g|-6xx-6xx-6xx-2-~~~----6---6---6---6-------2------9-------2---2-| x2
d|-4xx-4xx-4xx-2~~~----------------------------------------------|
a|-4xx-4xx-4xx-2~~~----------------------------------------------|
D|-4xx-4xx-4xx-2~~~----------------------------------------------|
    ..  ..  ..
e|-----------------------2---|----------------|
b|-5p2--------------2------2-|-5p2------------|
g|-----4/6p2----------2------|-----4/6p2------|
d|-----------6/7-7-----------|-----------6/7~~|x2
a|---------------------------|----------------|
D|-4---2---------------------|-4---2----------|


e|---------------------7/9p2----|----------------------|
b|-5p2-------------2--------7p2-|-5p2------------2--2--|
g|-----4/6p2-----2---2----------|-----4/6p2----2--2--2-|
d|-4---2-----6/7----------------|-4---2-----6/7--------| (repeat first section)
a|-4---2------------------------|-4---2----------------|
D|-4---2------------------------|-4---2----------------|

e|-----------------------------------------------|
b|-------------------9~~-------------5-------10~~|
g|-------------6-6-6-x---------------x--6----x---|
d|-6-6-6-9-9-9-x-x-x-x~~-6-6-6-9-9-9-x--x--7-x---|
a|-4-4-4-7-7-7-5-5-5-7---4-4-4-7-7-7-5--5--5-7~~-|
D|-4-4-4-7-7-7-----------4-4-4-7-7-7-------------|


e|------------------------------------|------7~~~~|
b|-------------9-9---~------5-----10~~|------5~~~~|
g|---------6-6-x-x----------x--6--x---|-6~~~~6~~~~|
d|-6-6-9-9-x-x-x~x~-6-6-9-9-x--x--x---|-x~~~~2----|
a|-4-4-7-7-5-5-7-7--4-4-7-7-5--5--7~--|-5~~~-2~~~-|
D|-4-4-7-7----------4-4-7-7-----------|-----------|

e|------------------------------------------------|
b|-------------10p2-5------~~------------------10p2-5-------------10p2-5--10p2-5----|
g|-9p2-6~~-------------9p2-6-------9p2-6---------------9p2-6------------------------|
d|----------------------------------------------------------------------------------|
a|-------9p2-5~~------------=9p2-5~------9p2-5~-------------9p2-5---------5-------~-|
D|----------------------------------------------------------------------------------|


e|--------------------------17p2-----------------------------17p2----|
b|--------------10p2-5/7p2-----~~-----------------10p2-5/7p2---------|
g|-9p2-6-------------------------6p2---9p2-6----6----------------6p2-|
d|-------------------------------------------------------------------| x2
a|--------------------------------------------~----------------------|
D|-------9p2-4~------------------------------9p2---------------------|


e|-----------------------|
b|--------------10p2-5---|
g|-9p2-6-----------------|
d|-----------------------|x4
a|--------9p2-5--------~-|
D|-----------------------|


e|-------------------------------------------------------------17p2------|
b|------------10p2-5-------~~------10p2-5----------10p2-5/7p2------------|
g|-9p2-6---------------9p2-6---------------9p2-6-------------------6p2---|
d|-----------------------------------------------------------------------|x2
a|-----------------------------------------------------------------------|
D|------9p2-4----------------9p2-4--------------9p2----------------------|


e|------------------------------|
b|------------------------------|
g|-6-6-6-9~~-6-6-6~~---4-4-4~---|
d|-7-7-7-7~~-7-7-7~~---6-6-6~~--|
a|-9-9-9-5~~-5-5-5~~---2-2-2~~~-|
D|-----------4-4-4~~---2-2-2~~--|


e|------------------------------------------------------------7777-|--------------|
b|--------------------------------------------------5555-5555-5555-|--------------|
g|-6-6-6-6-6-6-9999-9999-9999-9999-6-6-6-6-6-6-4444-4444-4444-4444-|-666666-6~~~~-|
d|-7-7-7-7-7-7-7777-7777-7777-7777-7-7-7-7-7-7-6666-6666-6666-6666-|-777777-x-----|
a|-9-9-9-9-9-9-5555-5555-5555-5555-4-4-4-4-4-4-2222~2222-2222-2222-|-999999-5-----|
D|---------------------------------4-4-4-4-4-4-2222~2222-2222-2222-|--------------|
comments
print report bad tab
1 comment total.
+1 reply
hairguitar wrote on April 30 2014, 05:25 pm

This is a thing of beauty

I want to post or [tab]
guest
You may want to rate the tab now too:
select rating
Please do not post tabs as comments. Select "correction" instead!