Oops, an error
Loading. Please wait.

Me Ha Llegado El Amor Tab

23 views 1 this week
no commentswrite comment
1 2 3 4 5
3 more votes to show rating
add to favorites
launch autoscroll
font size
0
reset
how to read this tab
guitar tuner
Autoscroll
slow
fast
+/-
esc
set tempo
stop
Help us to improve Ultimate-Guitar.com Take our survey!
×
Hola que tal, está es mi primer colaboración en canciones...
Espero Que les guste y pues a echarle ganas que la vida es corta!
Dudas o sugerencias a mi Facebook: 

* = Trineado.

E------------------------------------------------|
A------------------------------------------------|
D------------------------------------------------|
G------------------------------------------------|
B---1--3--5--6--3--5-----5-5-5--6--5--3/6--6-----|
e---0--1--3--5--1--3-----3-3-3--5--3--1/5--5-----|

E------------------------------------------------|
A------------------------------------------------|
D------------------------------------------------|
G----------------------------------------* * *---|
B---3--5--6--8--6--5---1--3--5--6--5--8--8-8-8-8-|
e---1--3--5--7--5--3---0--1--3--5--3--7--7-7-7-7-|
                                    C
E-----------------------------------0------------|
A-----------------------------------3------------|
D-----------------------------------2------------|
G-----------------------------------0------------|
B---6--5--6--5--8--3--1-------------1------------|
e---5--3--5--3--7--1--0-------------0------------|


                   C
Me ha llegado el amor
                  G
hasta el fondo del alma

se lleno de ilusion
            C
mi vida atormentada

que bonito es sentir
        C7         F
tanto amor en el pecho
            C
y quisiera gritar,
            G                         C
y quisiera gritar...lo mucho que te quiero!

                   C
Me ha llegado el amor
                 G
y es del amor bonito

necesito de ti
            C
cuanto te necesito

nunca mas volvere
          C7      F
a sufrir sin tus besos
                 C
si tu me amas a mi
                  G                       C
como yo te amo a ti....nuestro amor sera eterno!

                 G
con tu amor y mi amor
             C
subiremos al cielo
             G
le diremos a Dios
              C
que mucho nos queremos
               C
que bonito es sentir
        C7        F
tanto amor en el pecho
             C
y quisiera gritar,
             G                        C
y quisiera gritar...lo mucho que te quiero!


REQUINTO (El Mismo Que El De Inicio)

                C
nunca mas volvere
          C7      F
a sufrir sin tus besos
                 C
si tu me amas a mi
                  G                       C
como yo te amo a ti....nuestro amor sera eterno!

                 G
con tu amor y mi amor
             C
subiremos al cielo
             G
le diremos a Dios
              C
que mucho nos queremos
               C
que bonito es sentir
        C7        F
tanto amor en el pecho
             C
y quisiera gritar,
             G                        C
y quisiera gritar...lo mucho que te quiero!


FINAL: G G C
Suggest correction
Give kudos to tab author, rate the tab!
1 2 3 4 5
comments
print report bad tab
guest
You may want to rate the tab now too:
select rating
Wanna post a correction for this tab? Suggest correction