Oops, an error
Loading. Please wait.

I See No Reason chords

by TITANIC
157 views 3 this week
no commentswrite comment
1 2 3 4 5
3 more votes to show rating
add to favorites
×
Save as Personal and add changes to this tab that will be seen only by you. Learn more ›
×
You can save this tab as Personal to edit and correct it or add notes. All changes will be seen only by you. Learn more »
launch autoscroll
font size
0
reset
transpose
0
reset
display chords
guitar tuner
edit
Autoscroll
slow
fast
+/-
esc
set tempo
stop
Author
Difficulty
Strumming
There is no strumming pattern for this song yet. and get +5 IQ
[Intro]
Bm  G F# x4

[Verse]
Bm             D     A
 It's time for me to change
     G            F#
from being what I am

Bm  
Through the years I feel 
    D         G           F# 
and live like every other man
Bm              D
Oh what am I become
E            G
what am I to find

[Chorus]
Em
 I see no reason
C             D Em
Baby I'm blind

I see no reason
C           Em
I see no rise
                G
I see no reason
                A
I see no reason

I see no reason
B
in my time be found

B Bm   F#  
Bm G  F# Bm  G F# B Bm
G F# 

[Verse]
Bm                     A
Is it I've been living out
    G                 F#  
and been given much advise

Bm             A
What to do and what to say
    G                F# 
and what I have to lie

Bm        D
What am I become
E            G
What am I to find

[Chorus]
Em
 I see no reason
C
Baby I'm blind
Em
 I see no reason
C           Em
I see no rise
                G
I see no reason
I see no reason
A
I see no reason
B
in my time be found

[Solo]
e|-14--12----------|-----------------|-----------------|-----------------|
B|---------15--12--|-15--12--15--14--|-14--15--12------|-12--------------|
G|-----------------|-----------------|-------------14--|-----------------|
D|-----------------|-----------------|-----------------|-----------------|
A|-----------------|-----------------|-----------------|-----------------|
E|-----------------|-----------------|-----------------|-----------------|

e|-14--12----------|-----12----------|-----------------|-----------------|
B|---------15--15--|-14------14------|-14--15--12--15--|-14--------------|
G|-----------------|-----------------|-----------------|-----14--11------|
D|-----------------|-----------------|-----------------|-----------------|
A|-----------------|-----------------|-----------------|-----------------|
E|-----------------|-----------------|-----------------|-----------------|

e|-14--12----------|-14--12----------|-14--12------14--|-12------14--12--|
B|---------15--12--|---------15--12--|---------15------|-----15----------|
G|-----------------|-----------------|-----------------|-----------------|
D|-----------------|-----------------|-----------------|-----------------|
A|-----------------|-----------------|-----------------|-----------------|
E|-----------------|-----------------|-----------------|-----------------|

e|-----------------|-----------------|-----------------|-----------------|
B|-15--14--14--15--|-14--12--15--14--|---------12--12--|-14--15--15--15--|
G|-----------------|-----------------|-14--11----------|-----------------|
D|-----------------|-----------------|-----------------|-----------------|
A|-----------------|-----------------|-----------------|-----------------|
E|-----------------|-----------------|-----------------|-----------------|

e|-----------------|(12)14---12------|-----------------|-----------------|
B|-15--12--14--15--|-------------14--|-12-- need help for this part 4:15-|
G|-----------------|-----------------|-----------------|-----------------|
D|-----------------|-----------------|-----------------|-----------------|
A|-----------------|-----------------|-----------------|-----------------|
E|-----------------|-----------------|-----------------|-----------------|

e|-----------------|---------12--14--|14-14-14........-|-14------12---------|
B|-15--12--15--12--|-14--15----------|-----------------|-----15------12-(15)|
G|-----------------|-----------------|-----------------|--------------------|
D|-----------------|-----------------|-----------------|--------------------|
A|-----------------|-----------------|-----------------|--------------------|
E|-----------------|-----------------|-----------------|--------------------|

e|14r12----12-------|-----------------|----------------|-----------------|
B|-----15----12-----|15--12--15--14---|15-14-12----12--|-----------------|
G|-----------------|-----------------|----------14-----|-----------------|
D|-----------------|-----------------|-----------------|-----------------|
A|-----------------|-----------------|-----------------|-----------------|
E|-----------------|-----------------|-----------------|-----------------|



************************************

| (n)  Ghost note
| r    Release
 

************************************
Suggest correction
Creating personal tab
Creating personal tab
You can edit any tab online and save it as your Personal.

You can edit, replace or remove any tab part or add personal notes – all changes will be seen only by you.

Personal tabs can be accessed anytime from any device, even offline.
Learn more »
Give kudos to tab author, rate the tab!
1 2 3 4 5
comments
print report bad tab
guest
You may want to rate the tab now too:
select rating
Wanna post a correction for this tab? Suggest correction