Oops, an error
Loading. Please wait.

27 Bass Tab

version 1
version 1

Whole song

Interactive

7,173 views 24 this week
no commentswrite comment
1 2 3 4 5
excellent!
x 3
add to favorites
launch autoscroll
font size
0
reset
guitar tuner
Autoscroll
slow
fast
+/-
esc
set tempo
stop
Help us to improve Ultimate-Guitar.com Take our survey!
×
Author
Verse 0:21 
G|-----------------------------------|
D|-----------------------------------|  3x
A|--3-3-3-3-3-3-3-3-3-3-3-3----------|
E|---------------------------0-0-0-0-|


Chorus 0:34
G|-----------------------------|
D|-----------------------------| 3x
A|--3--3~----3--3~-------------|
E|--------------------0-0-0-0--|

G|-------------|
D|-------------|
A|--3--3--3----|
E|-----------0~|


Verse 0:47
G|-----------------------------------|
D|-----------------------------------|
A|--3-3-3-3-3-3-3-3-3-3-3-3/-7-7-7-7-|
E|-----------------------------------|

G|-----------------------------------|
D|-----------------------------------|  3x
A|--3-3-3-3-3-3-3-3-3-3-3-3----------|
E|---------------------------0-0-0-0-|


Break 1:01
G|-------------------------------|
D|-------------------------------|  2x
A|--3--3/-7--7~---3--3/-7--0-----|
E|----------------------------3~-|


Chorus 1:14
G|------------------------------------------------------------------|
D|------------------------------------------------------------------|   2x
A|--3-3-3-3-3-3-3-3-3-3-3-3-5-5-5-5-3-3-3-3-3-3-3-3---------2-2-2-2-|
E|--------------------------------------------------3-3-3-3---------|


Interlude 1:40
G|-------------------------|
D|-------------------------|  4x
A|-----------3~----/5\-3---|
E|---0~--3~----------------|

G|--------------|
D|--------------|
A|--------------|
E|--0-0-0-3-3-3-|


Chorus 2:09
G|-----------------------------|
D|-----------------------------| 3x
A|--3--3~----3--3~-------------|
E|--------------------0-0-0-0--|

G|-------------|
D|-------------|
A|--3--3--3----|
E|-----------0~|


Song Order:
Verse
Chorus
Verse 2
Break
Chorus
Interlude
Chorus
Suggest correction
Give kudos to tab author, rate the tab!
1 2 3 4 5
comments
print report bad tab
guest
You may want to rate the tab now too:
select rating
Please do not post tabs as comments. Select "correction" instead!