Oops, an error
Loading. Please wait.

27 Tab

version 1
version 1

Whole song

Interactive

29,939 views 63 this week
no commentswrite comment
1 2 3 4 5
excellent!
x 12
add to favorites
launch autoscroll
font size
0
reset
how to read this tab
guitar tuner
Autoscroll
slow
fast
+/-
esc
set tempo
stop
Help us to improve Ultimate-Guitar.com Take our survey!
×
Title Fight – "27"

Standard Tuning 

-After watching a couple live and acoustic videos, this is pretty much how Jamie plays it.


*start song with dead notes*
Intro/Verse:
E|----------------------------------------------------|
B|----------------------------------------3-3-3-3-----|
G|--44-4-4--4---4-4-4--4---4-4-4--4-4-----4-4-4-4-----|
D|--55-5-5--5---5-5-5--5---5-5-5--5-5-----5-5-5-5-----|
A|--33-3-3--3---3-3-3--3---3-3-3--3-3-----0-0-0-0-----|
E|--33-3-3--3---3-3-3--3---3-3-3--3-3-----0-0-0-0-----|

E|----------------------------------------------------|
B|----------------------------------------------------|
G|--4-4--4---4-4-4--4---4-4-4--4-4-----4-4-4-4--------|
D|--5-5--5---5-5-5--5---5-5-5--5-5-----5-5-5-5--------|
A|--3-3--3---3-3-3--3---3-3-3--3-3-----2-2-2-2--------|
E|--3-3--3---3-3-3--3---3-3-3--3-3-----0-0-0-0--------|

Chorus:
E|---------------------------------------------------------|
B|--------------------3-3-3-3------------------------------|
G|--4--4~----4--4~----4-4-4-4---4--4~----4--4~---4-4-4-4---|
D|--5--5~----5--5~----5-5-5-5---5--5~----5--5~---5-5-5-5---|
A|--3--3~----3--3~----0-0-0-0---3--3~----3--3~---2-2-2-2---|
E|--3--3~----3--3~----0-0-0-0---3--3~----3--3~---0-0-0-0---|

Verse 2: (do you remember…)
E|------------------------------------------------|
B|------------------------------------------------|
G|---4-4--4----4-4--4----4-4--4-------------------|
D|---5-5--5----5-5--5----5-5--5---xx-9-9----------|
A|---3-3--3----3-3--3----3-3--3---xx-7-7----------|
E|---3-3--3----3-3--3----3-3--3---xx-0-0----------|
PM   * *       * *       * *

E|------------------------------------------------|
B|------------------------------------------------|
G|---4-4--4----4-4--4----4-4--4----xx--4-4--------|
D|---5-5--5----5-5--5----5-5--5----xx--5-5--------|
A|---3-3--3----3-3--3----3-3--3----xx--2-2--------|
E|---3-3--3----3-3--3----3-3--3----xx--0-0--------|
PM   * *       * *       * *


This fill at the end of verse 2:
(your superstition has me buried 6 feet under)
E|--------------------------------------------------|
B|--------------------------3-----------------------|
G|--4-4--4----4-4--4----------4----------4----------|
D|--5-5--5----5-5--5--2-4-5-----5--------5----------|
A|--3-3--3----3-3--3-------------0h2h3---3----------|
E|--3-3--3----3-3--3---------------------3----------|
PM  * *       * *    




Break:
E|----------------------------------------------|
B|----------------------------------------------|
G|--4-4-----------------------------------------|
D|--5-5---9-9b109b109b109~----------------------|
A|--3-3---7-------------------------------------|
E|--3-3---0-------------------------------------|

E|----------------------------------------------|
B|-------------------3--------------------------|
G|--4-4----------------4----------4-------------|
D|--5-5---9----2-4-5-----5--------5-------------|
A|--3-3---7---------------0h2h3---3-------------|
E|--3-3---0-----------------------3-------------|


Interlude:
E|--------------------------------------------------------|
B|--------------------------------------------------------|
G|--4-4b54b54b54~--------7------4-4b54b54b54~-----4-------|
D|-------------------0--------------------------2---------|   
A|--3--------------7---7---7----3-------------0-----0-----|
E|--------------------------------------------------------|

E|-----------------------------------------------------------|
B|-----------------------------------------------------------|
G|--4-4b54b54b54~--------7------4-4b54b54b54~----------------|
D|-------------------0---------------------------------------|   
A|--3--------------7---7---7----3----------------------------|
E|--------------------------------------------0---3---5------|

E|----------------------------------------------------------------------|
B|----------------------------------------------------------------------|
G|----------------------------------------------------------------------| x4
D|--5-5-5-5-5-5-5----222-2--2-2-2-0---555-5-5-5-5-5-5-5---999-9-9-9-9\5-|
A|----------------------------------------------------------------------|
E|----------------------------------------------------------------------|
PM  * * * * * *      *** *            *** * * * * * *     *** * 
        (Do you remember.. your lucky number?)

Outro:
E|----------------------------------------------------|
B|----------------------------------------3-3-3-3-----|
G|--44-4-4--4---4-4-4--4---4-4-4--4-4-----4-4-4-4-----|
D|--55-5-5--5---5-5-5--5---5-5-5--5-5-----5-5-5-5-----|
A|--33-3-3--3---3-3-3--3---3-3-3--3-3-----0-0-0-0-----|
E|--33-3-3--3---3-3-3--3---3-3-3--3-3-----0-0-0-0-----|

E|----------|
B|----------|
G|--4-4-----|
D|--5-5-----|
A|--3-3-----|
E|--3-3\----|

Song Order:
Intro
Verse
Chorus
Verse 2
Break
Chorus
Interlude
Chorus
Outro
Suggest correction
comments
print report bad tab
guest
You may want to rate the tab now too:
select rating
Please do not post tabs as comments. Select "correction" instead!