Oops, an error
Loading. Please wait.

Coxton Yard Tab

version 1
version 1

Whole song

Interactive

7,555 views 16 this week
2 commentsread comments
1 2 3 4 5
excellent!
x 3
add to favorites
launch autoscroll
font size
0
reset
how to read this tab
guitar tuner
Tab Pro tools
  • play this tab
  • loop segment
  • change instrument
  • show fretboard
  • metronome
×
Best way to learn
"Coxton Yard"
Autoscroll
slow
fast
+/-
esc
set tempo
stop
Contributor
--------------------------------------------------------------------------
                                      Coxton Yard - Title Fight
--------------------------------------------------------------------------
Tabbed by: Tim
Tuning: Standard

Guitar 1:
e|-------------------------------------|
B|-------------------------------------|
G|-88-8-44-444-444-4-66-6-22-222-222-2-| x2
D|-99-9-44-444-444-4-66-6-22-222-222-2-|
A|-77-7-22-222-222-2-44-4-00-000-000-0-|
E|-------------------------------------|
         
e|-------------------------------------------------|
B|-------------------------------------------------|
G|-1111-11-11-111111-11-11-111111-11-11-1188-8-8-8-| x4
D|-9-9--9--9--9-9-9--9--9--9-9-9--9--9--9-99-9-9-9-|
A|-------------------------------------------------|
E|-------------------------------------------------|

e|-----------------------------------0-|
B|-----------0---0--------------0----0-|
G|-88-118----6h8-4----88-118----6h8-4--|
D|-99-9-9-------------99-9-9-----------|
A|-------------------------------------|
E|-------------------------------------|

e|----------------------------------------------------|
B|----------------------------------------------------|
G|-4-------22--------88-888-888-8----88-888-888-888-8-|
D|-4-22--4-22----66-099-999-999-966-099-999-999-999-9-|
A|-2-22--4-00----44-077-777-777-744-077-777-777-777-7-|
E|---00--2-------44-000-000-000-044-000-000-000-000-0-|

e|-------------------------------------------------|
B|-------------------------------------------------|
G|-888888888-8-888888888-4-888888888-8-888888888---|
D|-999999999-9-999999999-4-666666666-6-666666666-7-| x4
A|-777777777-7-777777777-2-444444444-4-444444444-7-|
E|-----------------------------------------------5-|
   ***   **    ***   **    ***   **    ***   **  

e|-----------------|
B|-----------0---0-|
G|-88-118----6h8-4-|
D|-99-9-9----------|
A|-----------------|
E|-----------------|

Guitar 2:
e|----------------------------------|
B|----------------------------------|
G|-88-888-888-888-888-888-888-888-8-| x2
D|-99-999-999-999-999-999-999-999-9-|
A|-77-7----------------00-000-000-0-|
E|-----77-777-777-799-9-------------|

e|----------------------------------------------------------------|
B|----------------------------------------------------------------|
G|-------------------------66-6-6-6----------------99-9-9-966-6-6-| 
D|-66-6-4-677-7-7-722-2-2-266-6-6-666-6-4-677-7-7-799-9-9-966-6-6-|
A|-66-6-4-677-7-7-722-2-2-244-4-4-466-6-4-677-7-7-777-7-7-744-4-4-|
E|-44-4-2-455-5-5-500-0-0-0--------44-4-2-455-5-5-5---------------|
   ** * * *** * * *** * * *** * * *** * * *** * * *** * * **

e|----------------------------------------------------------------|
B|----------------------------------------------------------------|
G|-------------------------66-6-6-6----------------99-9-9-966-6-6-| 
D|-66-6-4-677-7-7-722-2-2-266-6-6-666-6-4-677-7-7-799-9-9-966-6-6-|
A|-66-6-4-677-7-7-722-2-2-244-4-4-466-6-4-677-7-7-777-7-7-744-4-4-|
E|-44-4-2-455-5-5-500-0-0-0--------44-4-2-455-5-5-5---------------|

e|--------------------------------------|
B|--------------------------------------|
G|-88-866-666-666-6---------------------| x2
D|-99-966-666-666-666-677-777-777-777-7-|
A|-77-744-444-444-466-677-777-777-777-7-|
E|-----------------44-455-555-555-555-5-|

e|----------------------------------------------------|
B|----------------------------------------------------|
G|-4-------22--------88-888-888-8----88-888-888-888-8-|
D|-4-22--4-22----66-099-999-999-966-099-999-999-999-9-|
A|-2-22--4-00----44-077-777-777-744-077-777-777-777-7-|
E|---00--2-------44-000-000-000-044-000-000-000-000-0-|

e|-------------------------------------------------|
B|-------------------------------------------------|
G|-888888888-8-888888888-4-888888888-8-888888888---|
D|-999999999-9-999999999-4-666666666-6-666666666-7-| x4
A|-777777777-7-777777777-2-444444444-4-444444444-7-|
E|-----------------------------------------------5-|
   ***   **    ***   **  ^  ***   **    ***   **  
                       come in
e|-----------------------|
B|-----------------------|
G|-88-866-666-666-6------| 
D|-99-966-666-666-666-67-|
A|-77-744-444-444-466-67-|
E|-----------------44-45-|


| *   palm mute
| /   slide up
| \   slide down
| h   hammer-on
| p   pull-off
| ~   vibrato
| +   harmonic
| x   Mute note
| b   Bend
| pb  Pre-bend
| br  Bend release
| pbr Pre-bend release
| brb Bend release bend

************************************
comments
We did not receive enough feedback on this tab! Please rate:
print report bad tab
1 2 3 4 5
2 comments total.
0 reply
Tregan94 wrote on January 28 2013, 11:52 pm

The A is played like 7 to get the same sound as the song.
6
5

0 reply
Tregan94 wrote on January 28 2013, 11:54 pm

7 ^ ****
6
5

I want to post or [tab]
guest
You may want to rate the tab now too:
select rating
Please do not post tabs as comments. Select "correction" instead!