Oops, an error
Loading. Please wait.

Gmt Greenwich Mean Time Bass Tab

3,227 views 1 this week
no commentswrite comment
1 2 3 4 5
2 more votes to show rating
add to favorites
launch autoscroll
font size
0
reset
guitar tuner
Autoscroll
slow
fast
+/-
esc
set tempo
stop
Help us to improve Ultimate-Guitar.com Take our survey!
×
Title Fight – GMT (Greenwich Mean Time)

Standard Tuning

*not sure about the open g notes on the intro, I think they make it sound better

Intro:
G|--0-0-0/0-00-0-0-00-0-0-0-0-00—0/0-0-0-0-0-0-0-|
D|--2-2-2/4-44-5p4-00-4p5-5-5-55—5/9-9-9-9-9-9-9-|
A|-----------------------------------------------|
E|-----------------------------------------------|

Intro played throughout first verse:
G|--0-0-0/0-00-0-0-00-0-0-0-0-00—0/0-0-0-0-0-0-0-|
D|--2-2-2/4-44-5p4-00-4p5-5-5-55—5/9-9-9-9-9-9-9-|
A|-----------------------------------------------|
E|-----------------------------------------------|
       See my breath…
         With every word…

Song breaks out into:
G|------------------|
D|------------------|
A|--------2-0-2-3~--|
E|--0-0-------------|

Chorus:
G|--------------------------------------|
D|--------------------------------------|
A|------------2-2-2-2-------------3-3-3-|
E|--3-3-3-3-3---------0-0-0-0-0-0-------|
        Looking out…

Second Verse:
G|------------------|
D|------------------|
A|--------2-0-2-3~--|
E|--0-0-------------|
          See my breath…

Outro:
G|--0-0-0/0-00-0-0-00-0-0-0-0-00—0/0-0-0-0-0-0-0-|
D|--2-2-2/4-44-5p4-00-4p5-5-5-55—5/9-9-9-9-9-9-9-|
A|-----------------------------------------------|
E|-----------------------------------------------|

End on:
G|---0----|
D|---10~--|
A|--------|
E|--------|
Suggest correction
Give kudos to tab author, rate the tab!
1 2 3 4 5
comments
print report bad tab
guest
You may want to rate the tab now too:
select rating
Wanna post a correction for this tab? Suggest correction