Oops, an error
Loading. Please wait.

Head In The Ceiling Fan tab

version 2
version 2

Whole song

Interactive

29,669 views 111 this week
9 commentsread comments
1 2 3 4 5
x 21
add to favorites
×
Save as Personal and add changes to this tab that will be seen only by you. Learn more ›
×
You can save this tab as Personal to edit and correct it or add notes. All changes will be seen only by you. Learn more »
launch autoscroll
font size
0
reset
how to read this tab
guitar tuner
edit
Autoscroll
slow
fast
+/-
esc
set tempo
stop
Author
Difficulty
Head in The Ceiling Fan
Title Fight
jjjddd

EADGBe


[MAIN RIFF]  [clean, light fuzz]
e|-------------------------------------------------------------------------------|
B|----------------------------------------------9-12b-9-9b-----------------------|
G|----------------------------------8--8--8-----6--------------------------------|
D|--4-------4b-----4b-----4b--------6--6----9---7---------11---11--11/13-13-13\--| x3
A|--2--2-2------2--2---2--2---2--/--7--7--------0--------------0---0-----0--0----|
E|--4--0-0------0------0------0--/--0--0-----------------------------------------|

e|-----------------------------------------------------------------------------|
B|-----------------------------------------------------------------------------|
G|-------8----------8----------8----------8-----9-----9------------------------|
D|-----------------------------------------------------------------------------|
A|--6-6--6--6--6-6--6--6--6-6--6--6--6-6--6--6--7-7-7-7-----0------------------|
E|--0-0--0--0--0-0--0--0--0-0--0--0--0-0--0--0--0-0-0-0---4---5~~~-------------|

[heavy distortion, feedback and junk]
e|-------------------------------------------------------------------------------|
B|----------------------------------------------9-12b-9-9b-----------------------|
G|----------------------------------8--8--8-----6--------------------------------|
D|--4-------4b-----4b-----4b--------6--6----9---7---------11---11--11/13-13-13\--| x2
A|--2--2-2------2--2---2--2---2--/--7--7--------0--------------0---0-----0--0----|
E|--4--0-0------0------0------0--/--0--0-----------------------------------------|

this part might not be exact, not sure
e|-------------------------------|
B|-----------------12-12-12-12---|
G|-------------------------------| 
D|--------13-11-11---------------| x4
A|--11-11------------------------|
E|--0----------------------------|

rhythm guitar plays the main riff x2 here 

another guitar plays this over both times
e|---7--9---------------7--9--------------------------------------|
B|--------7--9---------------7--9--7------------------------------|
G|------------------------------------9--6--6\4--4/6---4----------|
D|---------------------------------------------------6---4-6------| x2
A|----------------------------------------------------------------|
E|----------------------------------------------------------------|

e|-------------------------------------------------------------------|
B|-------------------------------------------------------------------|
G|--8-8-8-8-8-8-8-8-8-8-8-8-8-8-8-8--9-9-9-9-9------------------x-x--|
D|--------------------------------------------------------------x-x--|
A|--6-6-6-6-6-6-6-6-6-6-6-6-6-6-6-6--7-7-7-7-7----0-------------x-x--|
E|--0-0-0-0-0-0-0-0-0-0-0-0-0-0-0-0--0-0-0-0-0--4---5~~~--------x-x--|

[clean, light fuzz again]
e|-------------------------------------------------------------------------------|
B|----------------------------------------------9-12b-9-9b-----------------------|
G|----------------------------------8--8--8-----6--------------------------------|
D|--4-------4b-----4b-----4b--------6--6----9---7---------11---11--11/13-13-13\--| x2
A|--2--2-2------2--2---2--2---2--/--7--7--------0--------------0---0-----0--0----|
E|--4--0-0------0------0------0--/--0--0-----------------------------------------|

e|-----------------------------------------------------|
B|-----------------------------------------------------|
G|-----------------------------------------------------|
D|--4--------4b------------------FEEDBACK--------------|
A|--2---2-2--2-----------------------------------------|
E|------0-0--------------------------------------------|

some parts may require some small improvisation but this is most of it i think
awesome song, awesome band


************************************

| x  Dead note
| b  Bend
| /  Slide up
| \  Slide down
| ~  Vibrato

************************************

            
            
Suggest correction
Creating personal tab
Creating personal tab
You can edit any tab online and save it as your Personal.

You can edit, replace or remove any tab part or add personal notes – all changes will be seen only by you.

Personal tabs can be accessed anytime from any device, even offline.
Learn more »
comments
print report bad tab
9 comments total. Showing first comments.
-2 reply
brianytreggah 96 Nov 13, 2012 01:19 PM

in the main riff throughout the song, you have this chord:

e|-----------------------------|
B|-----------------------------|
G|-----------------------------|
D|--/---9-9--------------------|
A|--/---7-7--------------------|
E|--/---0-0--------------------|


and it should be this chord:

e|-----------------------------|
B|------0-0--------------------|
G|------8-8--------------------|
D|--/---6-6--------------------|
A|--/---7-7--------------------|
E|--/---0-0--------------------|

0 reply
Roarz 31 May 08, 2013 01:17 AM

where you said: this part might not be exact, not sure
e|-------------------------------|
B|-----------------12-12-12-12---|
G|-------------------------------|
D|--------13-11-11---------------| x4
A|--11-11------------------------|
E|--0----------------------------|

i play it like:
e|-------------------------------|
B|------------------9999---------|
G|-------8-6--------6666---------|
D|-----6-----7------7777---------| x4
A|---7---------0----0000---------|
E|------------------0000---------|

0 reply
Roarz 31 May 08, 2013 01:21 AM

omg i forgot to say thankyou so much for the tab it is brilliant!!

guest
You may want to rate the tab now too:
select rating
Wanna post a correction for this tab? Suggest correction