Oops, an error
Loading. Please wait.

Head In The Ceiling Fan Tab

version 4
version 4

Whole song

Interactive

4,648 views 3 this week
no commentswrite comment
1 2 3 4 5
excellent!
x 4
add to favorites
launch autoscroll
font size
0
reset
how to read this tab
guitar tuner
Tab Pro tools
  • play this tab
  • loop segment
  • change instrument
  • show fretboard
  • metronome
×
Best way to learn
"Head In The Ceiling Fan"
Autoscroll
slow
fast
+/-
esc
set tempo
stop
Contributor
Here is a link to my cover video --- http://youtu.be/t6T-vADNLUg ---

Intro:
E|------------------------------------------------------------------------------------|
B|----------------------------------------9---12b--9b--9b-----------------------------|
G|-----------------------------8-8-8-88---6-------------------------------------------|
D|-------4b----4b----4b-----4/-x-x-x-xx---7----------------11-11/13-13-13\----------4b|
A|-------2b----2b----2b-----2/-6-6-6-66------------------------0--0--0--0\----------2b|
E|-4p0-0-0b--0-0b--0-0b-0-0---------------------------------------------------4p0-0-0b|


Last time:
E|--------------------------------------------|
B|--------------------------------------------|
G|--------------------------------------------|
D|--11/13-13-13-------4---------6-------------|
A|---0--0--0--0---6-6-6-6(x4)---7(x4)----0-0~-|
e|-------------------------------------4---5~-|

Band comes in:
E|------------------------------------------------------------------------------------|
B|----------------------------------------9---12b--9b--9b-----------------------------|
G|-----------------------------8-8-8-88---6-------------------------------------------|
D|-------4b----4b----4b-----4/-x-x-x-xx---7----------------11-11/13-13-13\----------4b|
A|-------2b----2b----2b-----2/-6-6-6-66------------------------0--0--0--0\----------2b|
E|-4p0-0-0b--0-0b--0-0b-0-0---------------------------------------------------4p0-0-0b|
(Add light distortion)

Interlude:
E|-------------------------------------|
B|---------------------------12--12-12-|
G|-------------------------------------| x4
D|---------13--11--11--11-11-----------|
A|-----11----------0---0--0------------|
E|--0--0-------------------------------|

Verse:
E|--7-9---------7-9-----------------------------|
B|------7-9~--------7-9-7-----------------------|
G|------------------------9-6~--4-6-1~-4--------| x2
D|---------------------------------------4--6b--|
A|----------------------------------------------|
E|----------------------------------------------|

Outro Buildup:
E|-----------------------------------------------------------------------|
B|-----------------------------------------------------------------------|
G|-----------------------------------------------------------------------|
D|-----------------------------------------------------------------------|
A|------------------------------------------------------------------0-0~-|
E|--11-11-11-11-11-11-11-11-11\9-9-9\7-7-7\4-4-4\2-2-2p0-0-0-0----4---5~-| 
    x  x    x  x  x    x  

Outro:
E|------------------------------------------------------------------------------------|
B|----------------------------------------9---12b--9b--9b-----------------------------|
G|-----------------------------8-8-8-88---6-------------------------------------------|
D|-------4b----4b----4b-----4/-x-x-x-xx---7----------------11-11/13-13-13\----------4b|
A|-------2b----2b----2b-----2/-6-6-6-66------------------------0--0--0--0\----------2b|
E|-4p0-0-0b--0-0b--0-0b-0-0---------------------------------------------------4p0-0-0b|
(Clean)
comments
print report bad tab
I want to post or [tab]
guest
You may want to rate the tab now too:
select rating
Please do not post tabs as comments. Select "correction" instead!