Oops, an error
Loading. Please wait.

In Between tab

version 3
version 3

Whole song

31 views 6 this week
1 commentread comment
1 2 3 4 5
2 more votes to show rating
add to favorites
×
Save as Personal and add changes to this tab that will be seen only by you. Learn more ›
×
You can save this tab as Personal to edit and correct it or add notes. All changes will be seen only by you. Learn more »
launch autoscroll
font size
0
reset
how to read this tab
guitar tuner
edit
Autoscroll
slow
fast
+/-
esc
set tempo
stop
I used the basics of cvnourn4's tab to figure the song out. Credit goes out to them for figuring out part of 
the main riff and chords and the bridge part. In creating this tab I don't want to show any disrespect 
to them as they were the first to make a tab of this song, I was simply asked to do it
the way I played it in this video: https://youtu.be/sviyZHWSZD8

[Intro/Verse/Main riff]
e|-------------------------------------------------------------| 
B|-------------------------------------------------------------| 
G|------------------6----4-----6-6-6-4-------------------------| 
D|--6-6-6-6-6-6-6--—6--6---6---4-4-4-x-------------------------| (x8)
A|--6-6-4-6-6-2-2/4-4----------5-5-5-5-------------------------| 
E|------------4-4--------------5-5-5-5-------------------------|

[Chorus]
e|-------------------------------------------------------------------------| 
B|-------------------------------------------------------------------------| 
G|------9-9-9--6-6-6/--9-9-9--6-6b-------9-9-9--6-6-6--9-9-9--6-6----------| 
D|------9-9-9--6-6-6/--9-9-9--6-6b-------9-9-9--6-6-6--9-9-9--6-6--6-6-6---| (x2)
A|--2/7-7-7-7--4-4-4/--7-7-7--4------2/7-7-7-7--4-4-4--7-7-7--4-4--6-6-6---| 
E|--0--------------------------------0-----------------------------4-4-4---|

[Interlude part]
e|-------------------------------------------------| 
B|-------------------------------------------------| 
G|-------------------------------------------------| 
D|-------------------------------------------------| (x4)
A|-6b--9--11~-------6b7r6b7r6b7r6b7r6--9--11-------| 
E|-------------------------------------------------|  
(2nd guitar plays main riff)

[Verse 2]
e|-------------------------------------------------------------| 
B|-------------------------------------------------------------| 
G|------------------6----4-----6-6-6-4-------------------------| 
D|--6-6-6-6-6-6-6--—6--6---6---4-4-4-x-------------------------| (x4)
A|--6-6-4-6-6-2-2/4-4----------5-5-5-5-------------------------| 
E|------------4-4--------------5-5-5-5-------------------------|

[Chorus]
e|-------------------------------------------------------------------------| 
B|-------------------------------------------------------------------------| 
G|------9-9-9--6-6-6/--9-9-9--6-6b-------9-9-9--6-6-6--9-9-9--6-6----------| 
D|------9-9-9--6-6-6/--9-9-9--6-6b-------9-9-9--6-6-6--9-9-9--6-6--6-6-6---| (x2)
A|--2/7-7-7-7--4-4-4/--7-7-7--4------2/7-7-7-7--4-4-4--7-7-7--4-4--6-6-6---| 
E|--0--------------------------------0-----------------------------4-4-4---|

[Bridge]
(Guitar 1+2)
e|--11----------11----------14----------14----------| 
B|-----12----12----12----12----12----12----12----12-| 
G|--------13----------13----------13----------13----| 
D|--------------------------------------------------| (x8)
A|--------------------------------------------------| 
E|--------------------------------------------------|  

(Guitar 1)
e|--------------------------------------------------------------------------| 
B|--------------------------------------------------------------------------| 
G|------9-9-9--6-6-6/--9-9-9--6-6b-------9-9-9--6-6-6--9-9-9--6-6-----------| 
D|------9-9-9--6-6-6/--9-9-9--6-6b-------9-9-9--6-6-6--9-9-9--6-6--6-6-6----| (x2)
A|--2/7-7-7-7--4-4-4/--7-7-7--4------2/7-7-7-7--4-4-4--7-7-7--4-4--6-6-6----| 
E|--0--------------------------------0-----------------------------4-4-4----|

(Guitar 2)
E|-----------------------------------------------------| 
B|-16h17-16h17-16h17-16h17-16h17-16h17—12b----14~--12--| 
G|-----------------------------------------------------| 
D|-----------------------------------------------------| (x2)
A|-----------------------------------------------------| 
E|-----------------------------------------------------|  
If you can, do slides instead of hammer ons though

[Outro]
e|-------------------------------------------------------------| 
B|-------------------------------------------------------------| 
G|------------------6----4-----6-6-6-4-------------------------| 
D|--6-6-6-6-6-6-6--—6--6---6---4-4-4-x-------------------------| (x4)
A|--6-6-4-6-6-2-2/4-4----------5-5-5-5-------------------------| 
E|------------4-4--------------5-5-5-5-------------------------|


************************************

| /   slide up
| \   slide down
| h   hammer-on
| p   pull-off
| ~   Let Ring
| b   Bend
| r   Bend release
| x   Mute string

************************************
Suggest correction
Creating personal tab
Creating personal tab
You can edit any tab online and save it as your Personal.

You can edit, replace or remove any tab part or add personal notes – all changes will be seen only by you.

Personal tabs can be accessed anytime from any device, even offline.
Learn more »
Give kudos to tab author, rate the tab!
1 2 3 4 5
comments
print report bad tab
1 comment total.
0 reply
sneeqo 10 Aug 03, 2017 07:39 PM

wsy better than the other tabs made for this song thankyou

guest
You may want to rate the tab now too:
select rating
Wanna post a correction for this tab? Suggest correction