Oops, an error
Loading. Please wait.

Leaf Bass Tab

1,893 views 6 this week
no commentswrite comment
1 2 3 4 5
excellent!
x 3
add to favorites
launch autoscroll
font size
0
reset
guitar tuner
Tab Pro tools
  • play this tab
  • loop segment
  • change instrument
  • show fretboard
  • metronome
×
Best way to learn
"Leaf"
Autoscroll
slow
fast
+/-
esc
set tempo
stop
Contributor
Artist: Title Fight
Album: Floral Green
Track: Leaf
Tuning: Standard (EADG)

Intro
G|--------------------------------|--------------------------------|
D|--------------------------------|--------------------------------| 
A|-3-3-3-3-3-3--------------------|--------------------------------| x2
E|-------------1-1-1-1-1-1-1-1-1-1|-5-5-5-5-5-5-5-5-5-5-5-5-5-5-5-5|

Verse 1
G|--------------------------------|--------------------------------|
D|--------------------------------|--------------------------------| 
A|-3-3-3-3-3-3--------------------|--------------------------------|
E|-------------1-1-1-1-1-1-1-1-1-1|-5-5-5-5-5-5-5-5-5-5-5-5-5-5-5-5|

G|--------------------------------|--------------------------------|
D|--------------------------------|--------------------------------| 
A|-3-3-3-3-3-3--------------------|--------------------------------| All x2
E|-------------1-1-1-1-1-1-1-1-1-1|-5-5-5-5-5-5-5-5-5-5-5-5-5-3-3-3|

Pre Chorus
G|--------------------------------|--------------------------------|
D|--------------------------------|-2---2-2-2-2-2---3---3-3-3-3-3--| 
A|-3---3---3---3---3---3-3-3-3-3--|--------------------------------| x2
E|--------------------------------|--------------------------------|

Chorus
G|--------------------------------|--------------------------------|
D|--------------------------------|--------------------------------| 
A|-3---3---3-3-3-3-3--------------|-3---3---3-3-3-3-3--------------| x2 
E|-------------------3-3-3-3-3-3-3|-------------------3-3-3-3-3-3-3|

Post chorus
G|--------------------------------|
D|--------------------------------| 
A|-3-3-3-3-3-3--------------------| 
E|-------------1-1-1-1-1-1-1-1-1-1|

Verse 2
G|--------------------------------|--------------------------------|
D|--------------------------------|--------------------------------| 
A|-3-3-3-3-3-3--------------------|--------------------------------| x3
E|-------------1-1-1-1-1-1-1-1-1-1|-5-5-5-5-5-5-5-5-5-5-5-5-5-5-5-5|

G|--------------------------------|--------------------------------|
D|--------------------------------|--------------------------------| 
A|-3-3-3-3-3-3--------------------|--------------------------------|
E|-------------1-1-1-1-1-1-1-1-1-1|-5-5-5-5-5-5-5-5-5-5-5-5-5-3-3-3|

Chorus
G|--------------------------------|--------------------------------|
D|--------------------------------|--------------------------------| 
A|-3---3---3-3-3-3-3--------------|-3---3---3-3-3-3-3--------------| x2 
E|-------------------3-3-3-3-3-3-3|-------------------3-3-3-3-3-3-3|

G|--------------------------------|--------------------------------|
D|--------------------------------|--------------------------------| 
A|--------------------------------|--------------------------------|
E|-0---0---0-0-0-0-0-3-3-3-3-3-3-3|-0---0---0-0-0-0-0-3-3-3-3-3-3-3|

G|--------------------------------|--------------------------------|
D|--------------------------------|--------------------------------| 
A|-3---3---3-3-3-3-3--------------|-3---3---3-3-3-3-3--------------|
E|-------------------3-3-3-3-3-3-3|-------------------3-3-3-3-3-3-3|

Post chorus
G|--------------------------------|--------------------------------|
D|--------------------------------|-2---2-2-2-2-2---3---3-3-3-3-3--| 
A|-3---3---3---3---3---3-3-3-3-3--|--------------------------------| x4
E|--------------------------------|--------------------------------|

Outro
G|--------------------------------|--------------------------------|
D|--------------------------------|--------------------------------| 
A|-3---3---3-3-3-3-3--------------|-3---3---3-3-3-3-3--------------| 
E|-------------------3-3-3-3-3-3-3|-------------------3-3-3-3-3-3-3|
comments
We did not receive enough feedback on this tab! Please rate:
print report bad tab
1 2 3 4 5
I want to post or [tab]
guest
You may want to rate the tab now too:
select rating
Please do not post tabs as comments. Select "correction" instead!