Oops, an error
Loading. Please wait.

Lefty tab

version 3
version 3

Whole song

1,285 views 12 this week
2 commentsread comments
1 2 3 4 5
x 3
add to favorites
×
Save as Personal and add changes to this tab that will be seen only by you. Learn more ›
×
You can save this tab as Personal to edit and correct it or add notes. All changes will be seen only by you. Learn more »
launch autoscroll
font size
0
reset
how to read this tab
guitar tuner
edit
Autoscroll
slow
fast
+/-
esc
set tempo
stop
Difficulty
intermediate
-------------------------------------------------------------------------------
                             LEFTY - Title Fight
-------------------------------------------------------------------------------
Tabbed by: Bryan Killingsworth
E-mail: 7thharm@gmail.com

Tuning: Standard

INTRO:

e|0-------0---0---|-------------|----------------|
B|0-------0---0---|-------------|----------------|
G|8-------8---8---|---repeat-4x-|3---------------|  repeat 2x
D|9-------x---x---|-------------|4---------------|
A|7-------x---x---|-------------|2---------------|
E|0-------9---7---|-------------|----------------|

RIFF1:

e|----------------|----------------|--6-6--66-6---6-|--6-6-6-6-------|
B|----------------|----------------|--7-7--77-7---7-|----------7-7---|
G|8---8--88-8-----|--8-8--88-8-----|--6-6--66-6---8-|--------------8-|  repeat 4x
D|9---9--99-9-----|--9-9--99-9-----|--8-8--88-8-8-8-|----------------|
A|7---7--77-7-----|--7-7--77-7-----|--6-6--66-6-6-x-|----------------|
E|0---0--00-0-7/9-|--0-0--00-0-7/9-|--------------7-|----------------|

RIFF2:

e|----------6---------------------------|
B|----------7--------------4-----4------|
G|---8------------------4----4/6---6/4--|   repeat 2x
D|9-----9-------------------------------|
A|-------------7-----4------------------|
E|--------------------------------------|

repeat INTRO 1x

repeat RIFF1 4x

repeat RIFF2 3x

END:

e|0---0---00-0-------|0---0---00-0-------|                              ---
B|0---0---00-0-------|0---0---00-0-------|                              ---
G|8---8---88-8-------|4---4---44-6-------|   repeat 4x then hold:       -3-
D|9---9---99-9-------|x---x---xx-x-------|                              -4-
A|7---7---77-7-------|4---4---44-6-------|                              -2-
E|0---0---00-0-------|-------------------|                              ---             


            
            
Suggest correction
Creating personal tab
Creating personal tab
You can edit any tab online and save it as your Personal.

You can edit, replace or remove any tab part or add personal notes – all changes will be seen only by you.

Personal tabs can be accessed anytime from any device, even offline.
Learn more »
Give kudos to tab author, rate the tab!
1 2 3 4 5
comments
print report bad tab
2 comments total.
0 reply
el_Synyster 10 Jan 17, 2016 04:03 AM

Very Good Thanks!

0 reply
regionalatbestx 93 Mar 30, 2017 10:19 AM

You got all of the voicings right, I'm impressed!

guest
Wanna post a correction for this tab? Suggest correction