Oops, an error
Loading. Please wait.

Like A Ritual Bass Tab

version 1
version 1

Whole song

Interactive

3,165 views 12 this week
no commentswrite comment
1 2 3 4 5
excellent!
x 4
add to favorites
launch autoscroll
font size
0
reset
guitar tuner
Autoscroll
slow
fast
+/-
esc
set tempo
stop
Help us to improve Ultimate-Guitar.com Take our survey!
×
Artist: Title Fight
Album: Floral Green
Track: Like a Ritual
Tuning: Standard (EADG)

Intro riff (you can bend the first E [7 on the A string] on the fourth repeat with the 
lead guitar)
G|--------------------------------|--------------------------------|
D|-7---7---7-7-5------------------|--------------------------------|
A|-----------------7--7-7--7-5-5-7|-8---8---8-8-7---------------5-5| x4
E|--------------------------------|-----------------8---8-8---8----|

Verse 1
G|--------------------------------|--------------------------------|
D|--------------------------------|--------------------------------|
A|-----------------7---7-7---7-7-5|-8---8---8-8-7------------------| x2
E|-5---5---5-5-5------------------|-----------------8---8-8---8-8-8|

Intro riff
G|--------------------------------|--------------------------------|
D|-7---7---7-7-5------------------|--------------------------------|
A|-----------------7--7-7--7-5-5-7|-8---8---8-8-7---------------5-5| x2
E|--------------------------------|-----------------8---8-8---8----|

Verse 2
G|--------------------------------|--------------------------------|
D|--------------------------------|--------------------------------|
A|--------------------------------|-5---5---5-5-5---8---8-8---8-8-8| x3
E|-5---5---5-5-5---1---1-1---1-1-1|--------------------------------|

G|--------------------------------|--------------------------------|
D|--------------------------------|-------------5------------------|
A|--------------------------------|-5---5---5-5-----8---8-8---8-8-8|
E|-5---5---5-5-3---1---1-1---1-1-1|--------------------------------|

G|--------------------------------|--------------------------------|
D|--------------------------------|--------------------------------|
A|-----------------7---7-7---7-7-5|-8---8---8-8-7------------------| x2
E|-5---5---5-5-5------------------|-----------------8---8-8---8-8-8|

Intro riff
G|--------------------------------|--------------------------------|
D|-7---7---7-7-5------------------|--------------------------------|
A|-----------------7--7-7--7-5-5-7|-8---8---8-8-7---------------5-5| x2
E|--------------------------------|-----------------8---8-8---8----|

Verse 3
G|--------------------------------|--------------------------------|
D|--------------------------------|--------------------------------|
A|--------------------------------|-5---5---5-5-5---8---8-8---8-8-8| x3
E|-5---5---5-5-5---1---1-1---1-1-1|--------------------------------|

G|--------------------------------|--------------------------------|
D|--------------------------------|-------------5------------------|
A|--------------------------------|-5---5---5-5-----8---8-8---8-8-8|
E|-5---5---5-5-3---1---1-1---1-1-1|--------------------------------|

Outro
G|--------------------------------|--------------------------------|
D|--------------------------------|--------------------------------|
A|-------------3----------3--3--3-|-------------3------------------|
E|-5---5---3----------3-----------|-5---5---3----------1-3-3-3-3---|

G|--------------------------------|--------------------------------|
D|--------------------------------|--------------------------------|
A|-------------3----------3--3--3-|-------------3------------------|
E|-5---5---3----------3-----------|-5---5---3-------------3-3-3-3--|

G|--------------------------------|--------------------------------|
D|--------------------------------|--------------------------------|
A|-------------3----------3-------|-------------3----------3-5-5-5-|
E|-5---5---3----------3-----------|-5---5---3----------3-----------|

G|--------------------------------|--------------------------------|
D|--------------------------------|--------------------------------|
A|-------------3----------3--3--3-|-------------3------------------|
E|-5---5---3----------3-----------|-5---5---3----------1-3-3-3-3---|

G|--------------------------------|--------------------------------|
D|--------------------------------|--------------------------------|
A|-------------3----------3--3--3-|-------------3------------------|
E|-5---5---3----------3-----------|-5---5---3------------3-3-3-3---|

G|--------------------------------|--------------------------------|
D|--------------------------------|--------------------------------|
A|-------------3----------3--3--3-|-------------3----------3-5-5-5-|
E|-5---5---3----------3-----------|-5---5---3----------3-----------|

G|--------------------------------|--------------------------------|
D|--------------------------------|--------------------------------|
A|-------------3------------------|--------------------------------|
E|-5---5---3----------------------|--------------------------------|
Suggest correction
comments
print report bad tab
guest
You may want to rate the tab now too:
select rating
Wanna post a correction for this tab? Suggest correction