Oops, an error
Loading. Please wait.

Memorial Field Tab

version 1
version 1

Intro

Whole song

Interactive

2,682 views 1 this week
3 commentsread comments
1 2 3 4 5
1 last vote to show rating
add to favorites
launch autoscroll
font size
0
reset
how to read this tab
guitar tuner
Autoscroll
slow
fast
+/-
esc
set tempo
stop
Help us to improve Ultimate-Guitar.com Take our survey!
×
Difficulty
novice
-------------------------------------------------------------------------------
                             Memorial Field - Title Fight
-------------------------------------------------------------------------------
Tabbed by: Jon Tryder
Email: Tryderjon@gmail.com

Tuning: Standard


Guitar 1:

e|------3-3------------3-3-------------------------------------------------------------|
B|---------5--3-5-3--------5-3-3-3-----------------------------------------------------|
G|---5-5------------5-5------------5---------------------------------------------------|
D|-------------------------------------------------------------------------------------|
A|-------------------------------------------------------------------------------------|
E|-------------------------------------------------------------------------------------|
Suggest correction
Give kudos to tab author, rate the tab!
1 2 3 4 5
comments
print report bad tab
3 comments total.
0 reply
WeAreEverywhere 16 Nov 04, 2010 05:58 PM


Lead:

(Comes in after one time of just rhythm guitar.)

e|-------------------------
B|-8-8-5-------3h5p3-------
G|--5-5---5555-------5-----
D|-------------------------
A|-------------------------
E|-------------------------
PM| x x xxxx

Rhythm:
e|--------------------------------------
B|--------------------------------------
G|--------------------------------------
D|-3---555-3---555-3---555-3---55-555---
A|-3---555-3---555-3---555-3---55-555---
E|-3---555-3---555-3---555-3---55-555---
PM|

0 reply
WeAreEverywhere 16 Nov 04, 2010 06:00 PM

^ I believe mine is correct, so i'll just make my own tab for this song.

0 reply
WeAreEverywhere 16 Nov 04, 2010 06:03 PM

Also, lol, i accidentally put that in standard. it should be drop D.

guest
You may want to rate the tab now too:
select rating
Wanna post a correction for this tab? Suggest correction