Oops, an error
Loading. Please wait.

Numb But I Still Feel It Bass Tab

5,695 views 6 this week
no commentswrite comment
1 2 3 4 5
x 5
add to favorites
launch autoscroll
font size
0
reset
guitar tuner
Autoscroll
slow
fast
+/-
esc
set tempo
stop
Help us to improve Ultimate-Guitar.com Take our survey!
×
Author
Difficulty
novice
Title Fight
Numb But I Still Feel It


I kind of tabbed out the rhythm, but not really.
Intro:

G|-------------------------------------|
D|-------------------------------------|
A|-------------------------------------|
E|-00000000-00000000-44444444-77777777-| x2


G|-------------------------------------|
D|-------------------------------------|
A|-------------------------------------|
E|-0-0-0-00-0-00-0---44444444-77777777-| 
   Ephasize the Open Es, follow the drums 

G|-------------------------------------|
D|-------------------------------------|
A|-------------------------------------|
E|-00000000-00000000-44444444-77777777-| 

Verse

"But did you know...."
G|--------------------------------|
D|---------6-66-------------------|
A|-7-77777-----------4-4444444444-|
E|--------------5-55--------------| x4

"Everything's so uncertain..."
G|--------------------|--------------------|
D|o------------------o|o------------------o|
A|o------------------o|o------------------o|
E|--4-4-4445-55-5555--|--0-0-0005-55-5555--| x2

"can't make my own decisions!"
G|---------------|
D|---------------|
A|---------------|
E|-0000000000000-|

  
  Every day I lie asleep...       Try to wake up from this dream
G|----------------------------|---------------------------------------------|
D|----------------------------|-------------------------666-----------------|
A|-4-44444--------------------|-4-44444---------7777777-----00000--44444444-|
E|---------4-44444--000000000-|---------4-44444-----------------------------|

"Numb, but I still feel it..."
G|--------------------|--------------------|
D|o------------------o|o------------------o|
A|o------------------o|o------------------o|
E|--4-4-4445-55-5555--|--0-0-0005-55-5555--| x2


(This time it's a little different)

G|----------------------------|
D|----------------------------|
A|-4-44444--------------------|
E|---------4-44444--000000000-| x2

G|-----------------|
D|-----------------|
A|-4-44444---------|
E|---------4-44444-|


"But did you know...."
G|--------------------------------|
D|---------6-66-------------------|
A|-7-77777-----------4-4444444444-|
E|--------------5-55--------------| x4



G|---------------|
D|---------------|
A|---------------|
E|-0-00-00-0-0-0-|(follow the drum's lead again, let last note ring)
Suggest correction
comments
print report bad tab
guest
You may want to rate the tab now too:
select rating
Wanna post a correction for this tab? Suggest correction