Oops, an error
Loading. Please wait.

Rose Of Sharon tab

2,791 views 27 this week
6 commentsread comments
1 2 3 4 5
x 4
add to favorites
×
Save as Personal and add changes to this tab that will be seen only by you. Learn more ›
×
You can save this tab as Personal to edit and correct it or add notes. All changes will be seen only by you. Learn more »
launch autoscroll
font size
0
reset
how to read this tab
guitar tuner
edit
Autoscroll
slow
fast
+/-
esc
set tempo
stop
I figured this out listening to their stripped-down live version and the song in general. 
If you find any mistakes, feel free to correct me. 
I did a cover on here: https://youtu.be/FhVrZ9VqS6I maybe it helps. Anyway, enjoy!

Title Fight - Rose of Sharon 

Intro:
e|-5----|
B|-5----|
G|-6----|
D|-7----|
A|-7----|
E|-5----|

Verse:
e|--0--0--------0--0--------0--0--------------|
B|--1--0--------1--0--------1--0--1-----------|
G|--2--0--------2--0--------2--0--2-----------|
D|--3--2--------3--2--------3--2--2-----------| x3
A|--3--3--------3--3--------3--3--0-----------|
E|--------------------------------------------|

e|-----------------------------------|
B|-----------------------------------|
G|---5--5-5--4-----------------------|
D|--------------5-----5--------------|x9
A|-----------------7-----------------|
E|-----------------------------------|

Chorus:

Riff
e|---------------------------------------|
B|-----0-------7-7-9-7-------------------|
G|---6---6-9----------9------------------|
D|---------------------------------------|x4
A|---------------------------------------|
E|---------------------------------------|

Chords
e|-5--9-----|
B|-5--9-----|
G|-6--9-----|
D|-7--11—---| x4
A|-7--11----|
E|-5--9-----|

Verse x2

Chorus: 
e|-5--9----------5-------------------|
B|-5--9----------5-------------------|
G|-6--9----------6--9----------------|
D|-7--11—x3------7--9----------------|
A|-7--11---------7--7----------------| x2
E|-5--9----------5-------------------|

Outro: 

Chords (end on the first one)
e|-----5---------|
B|-----5---------|
G|--9--6---------|
D|--9--7---------|
A|--7--7---------|
E|-----5---------|

Riff
e|---------------------------------------|
B|-----0-------7-7-9-7-------------------|
G|---6---6-9----------9------------------|
D|---------------------------------------|x12
A|---------------------------------------|
E|---------------------------------------|

e|-------------------|
B|-----0-------------|
G|---6---6-9---------|
D|-------------------|
A|-------------------|
E|-------------------|
Suggest correction
Creating personal tab
Creating personal tab
You can edit any tab online and save it as your Personal.

You can edit, replace or remove any tab part or add personal notes – all changes will be seen only by you.

Personal tabs can be accessed anytime from any device, even offline.
Learn more »
comments
print report bad tab
6 comments total. Showing first comments.
0 reply
simonm33 44 Mar 24, 2016 06:33 AM

e|---------------------------------------|
B|------------7-7-9-7--------------------|
G|---6-9-6-9----------9------------------|
D|---------------------------------------|
A|---------------------------------------|
E|---------------------------------------|


should be

e|---------------------------------------|
B|------------7-7-9-7--------------------|
G|---6---6-9----------9------------------|
D|-----9---------------------------------|x4
A|---------------------------------------|
E|---------------------------------------|

0 reply
deathcab4darlin 560 May 24, 2016 02:33 AM

exactly! thank you! i would only play the B string with effects though like a phase shifter bc otherwise it sounds a little bit odd.

guest
You may want to rate the tab now too:
select rating
Wanna post a correction for this tab? Suggest correction