Oops, an error
Loading. Please wait.

Secret Society Bass Tab

6,691 views 39 this week
no commentswrite comment
1 2 3 4 5
excellent!
x 4
add to favorites
launch autoscroll
font size
0
reset
guitar tuner
Tab Pro tools
  • play this tab
  • loop segment
  • change instrument
  • show fretboard
  • metronome
×
Best way to learn
"Secret Society"
Autoscroll
slow
fast
+/-
esc
set tempo
stop
Contributor
Artist: Title Fight
Album: Floral Green
Track: Secret Society
Tuning: Standard (EADG)

Intro/Verse 1
G|--------------------------------|--------------------------------|
D|--------------------------------|--------------------------------| 
A|-----9------9-9------9------9-9-|-----9------9-9------9------9-9-| 
E|-7-7-7--7-7-7-7--7-7-7--7-7-7-7-|-7-7-7--7-7-7-7--7-7-7--7-7-7-7-|

G|--------------------------------|--------------------------------|
D|-----9------9-9------9------9-9-|--------------------------------| 
A|-7-7-7--7-7-7-7--7-7-7--7-7-7-7-|-----9------9-9------9------9-9-| 
E|--------------------------------|-7-7-7--7-7-7-7--7-7-7--7-7-7-7-|

G|--------------------------------|--------------------------------|
D|--------------------------------|--------------------------------| 
A|-----9------9-9------9------9-9-|-----9------9-9------9------9-9-| 
E|-7-7-7--7-7-7-7--7-7-7--7-7-7-7-|-7-7-7--7-7-7-7--7-7-7--7-7-7-7-|

G|--------------------------------|--------------------------------|
D|--------------------------------|--------------------------------| 
A|-----5------5-5------5------5-5-|-----9------9-9------9------9-9-| 
E|-3-3-3--3-3-3-3--3-3-3--3-3-3-3-|-7-7-7--7-7-7-7--7-7-7--7-7-7-7-|

G|--------------------------------|--------------------------------|
D|--------------------------------|--------------------------------| 
A|-----5------5-5------8------8-8-|-----9------9-9------9------9-9-| 
E|-3-3-3--3-3-3-3--6-6-6--6-6-6-6-|-7-7-7--7-7-7-7--7-7-7--7-7-7-7-|
                                  
                                  |Rest of band enters
G|--------------------------------|--------------------------------|
D|--------------------------------|--------------------------------| 
A|-----5------5-5------8------8-8-|--------------------------------| 
E|-3-3-3--3-3-3-3--6-6-6--6-6-6-6-|-7-7-7-7-7-7-7-7-7-7-7-7-7-7-7-7|

Verse 2
G|--------------------------------|--------------------------------|
D|--------------------------------|--------------------------------| 
A|--------------------------------|--------------------------------| 
E|-7-7-7-7-7-7-7-7-7-7-7-7-7-7-7-7|-7-7-7-7-7-7-7-7-7-7-7-7-7-7-7-7|

G|--------------------------------|--------------------------------|
D|--------------------------------|--------------------------------| 
A|-7-7-7-7-7-7-7-7-7-7-7-7-7-7-7-7|--------------------------------| 
E|--------------------------------|-7-7-7-7-7-7-7-7-7-7-7-7-7-7-7-7|

G|--------------------------------|--------------------------------|
D|--------------------------------|--------------------------------| 
A|--------------------------------|--------------------------------| 
E|-7-7-7-7-7-7-7-7-7-7-7-7-7-7-7-7|-7-7-7-7-7-7-7-7-7-7-7-7-7-7-7-7|

G|--------------------------------|--------------------------------|
D|--------------------------------|--------------------------------| 
A|--------------------------------|--------------------------------| 
E|-3-3-3-3-3-3-3-3-3-3-3-3-3-3-3-3|-7-7-7-7-7-7-7-7-7-7-7-7-7-7-7-7|

G|--------------------------------|--------------------------------|
D|--------------------------------|--------------------------------| 
A|--------------------------------|--------------------------------| 
E|-3-3-3-3-3-3-3-3-6-6-6-6-6-6-6-6|-7-7-7-7-7-7-7-7-7-7-7-7-7-7-7-7|
                                  
G|--------------------------------|
D|--------------------------------|
A|--------------------------------| 
E|-3-3-3-3-3-3-3-3-6-6-6-6-6-6-6-6|

Bridge 1
G|--------------------------------|--------------------------------|
D|--------------------------------|--------------------------------| 
A|--------5-5---5-5-5-5-5-5-5-5---|--------------------------------| x4 
E|-3------------------------------|-7------2-2---2-2-2-2-2-2-2-2---|

G|--------------------------------|--------------------------------|
D|--------------------------------|--------------------------------| 
A|--------------------------------|--------------------------------| 
E|-7-7-7-7-7-7-7-7-7-7-7-7-7-7-7-7|-7-7-7-7-7-7-7-7-7-7-7-7-7-7-7-7|

Verse 3
G|--------------------------------|--------------------------------|
D|--------------------------------|--------------------------------| 
A|--------------------------------|--------------------------------| 
E|-7-7-7-7-7-7-7-7-7-7-7-7-7-7-7-7|-7-7-7-7-7-7-7-7-7-7-7-7-7-7-7-7|

G|--------------------------------|--------------------------------|
D|--------------------------------|--------------------------------| 
A|-7-7-7-7-7-7-7-7-7-7-7-7-7-7-7-7|--------------------------------| 
E|--------------------------------|-7-7-7-7-7-7-7-7-7-7-7-7-7-7-7-7|

G|--------------------------------|--------------------------------|
D|--------------------------------|--------------------------------| 
A|--------------------------------|--------------------------------| 
E|-7-7-7-7-7-7-7-7-7-7-7-7-7-7-7-7|-7-7-7-7-7-7-7-7-7-7-7-7-7-7-7-7|

G|--------------------------------|--------------------------------|
D|--------------------------------|--------------------------------| 
A|--------------------------------|--------------------------------| 
E|-3-3-3-3-3-3-3-3-3-3-3-3-3-3-3-3|-7-7-7-7-7-7-7-7-7-7-7-7-7-7-7-7|

G|--------------------------------|--------------------------------|
D|--------------------------------|--------------------------------| 
A|--------------------------------|--------------------------------| 
E|-3-3-3-3-3-3-3-3-6-6-6-6-6-6-6-6|-7-7-7-7-7-7-7-7-7-7-7-7-7-7-7-7|
                                  
G|--------------------------------|
D|--------------------------------|
A|--------------------------------| 
E|-3-3-3-3-3-3-3-3-6-6-6-6-6-6-6-6|

Chorus/Solo/Outro
G|--------------------------------|--------------------------------|
D|--------------------------------|--------------------------------| 
A|-----------------6---6-6-7-7-7-7|-----------------6---6-6-7-7-7-7| 
E|-7---7-7-7-7-7-7----------------|-7---7-7-7-7-7-7----------------|

G|--------------------------------|--------------------------------|
D|--------------------------------|--------------------------------| All
A|-----------------6---6-6-7-7-7-7|--------------------------------|  x4
E|-4---4-4-4-4-4-4----------------|-7---7-7-7-7-7-7-7---7-7-7-7-7-7|
comments
print report bad tab
I want to post or [tab]
guest
You may want to rate the tab now too:
select rating
Please do not post tabs as comments. Select "correction" instead!