Oops, an error
Loading. Please wait.

Shed Bass

version 1
version 1

Whole song

Interactive

6,711 views 21 this week
1 commentread comment
1 2 3 4 5
1 last vote to show rating
add to favorites
launch autoscroll
font size
0
reset
guitar tuner
×
Best way to learn
"Shed"
Autoscroll
slow
fast
+/-
esc
set tempo
stop
Here's the bass of Shed, this is my first tab ever, so mistakes could occur.

Have fun playing, but watch out for rythm rarities (for exemple before the first chorus).
I might have tabbed some guitar parts for the bass too, but well yeah, more fun!



Intro : 
G|---------------------------------------------------------|
D|---------------------------------------------------------|
A|-444464--------444464-----------000----------------------|
E|--------000000--------000000-----------------------------|

G|---------------------------------------------------------|
D|---------------------------------------------------------|
A|-444464--------444464--------0~--------------------------|
E|--------000000--------000000-----------------------------|



Verse : (played 2x)
G|------------------------------------------------------------------|
D|------------------------------------------------------------------|
A|-444---------------444-----0000000--552---------------------------|
E|-----0000000000000-----000----------------------------------------|

G|------------------------------------------------------------------|
D|------------------------------------------------------------------|
A|-444---------------444-----0000000--552444------------------------|
E|-----0000000000000-----000----------------------------------------|


Pre-chorus
G|---------------------------------------------------------|
D|---------------------------------------------------------|
A|-444464--------444464-----------000----------------------|
E|--------000000--------000000-----------------------------|

G|---------------------------------------------------------|
D|---------------------------------------------------------|
A|-444464--------444464----------000--000------------------|
E|--------000000--------000000-----------------------------|



Chorus :
G|------------4------------4-------------4-------------4----------|
D|----------6------------6-------------6-------------6------------|
A|------2/4----------2/4-------0-0-2/4-------0-0-2/4--------------|
E|--0-0----------0-0----------------------------------------------|


Verse : (played )
G|------------------------------------------------------------------|
D|------------------------------------------------------------------|
A|-444---------------444-----0~-------------------------------------|
E|-----0~----------------000----------------------------------------|

G|------------------------------------------------------------------|
D|------------------------------------------------------------------|
A|-444---------------444-----0~-------------------------------------|
E|-----0~----------------000----------------------------------------|

G|------------------------------------------------------------------|
D|------------------------------------------------------------------|
A|-444---------------444-----0000000--552---------------------------|
E|-----0000000000000-----000----------------------------------------|

G|------------------------------------------------------------------|
D|------------------------------------------------------------------|
A|-444---------------444-----0000000--552444------------------------|
E|-----0000000000000-----000----------------------------------------|

Pre-chorus :
G|--------|
D|--------|
A|--------|
E|-0~----0|

Chorus : (2x)
G|------------4------------4-------------4-------------4----------|
D|----------6------------6-------------6-------------6------------|
A|------2/4----------2/4-------0-0-2/4-------0-0-2/4--------------|
E|--0-0----------0-0----------------------------------------------|


Outro :
G|---------------------------------------------------|
D|---------------------------------------------------|
A|---------444464-----------000~---------------------|
E|--000000--------000000-----------------------------|
Suggest correction
Give kudos to tab author, rate the tab!
1 2 3 4 5
comments
print report bad tab
1 comment total.
0 reply
Western Haikus 51 Jan 31, 2013 05:16 AM

Hi guys I figured out some faults:
-during the riff part the bass goes
G|---------------------------------------------------------|
D|---------------------------------------------------------|
A|-444444--------444464-----------000----------------------|
E|--------000000--------000000-----------------------------|
so the first time he doesn't play the '6'.

-At the end of each verse the bass plays:
G|------------------------------------------------------------------|
D|------------------------------------------------------------------|
A|-444---------------444-----0000000--------------------------------|
E|-----0000000000000-----000---------220----------------------------|

guest
You may want to rate the tab now too:
select rating
Wanna post a correction for this tab? Suggest correction