Oops, an error
Loading. Please wait.

Shed Tab

version 4
version 4

Whole song

Interactive

46 views 1 this week
no commentswrite comment
1 2 3 4 5
3 more votes to show rating
add to favorites
launch autoscroll
font size
0
reset
how to read this tab
guitar tuner
Autoscroll
slow
fast
+/-
esc
set tempo
stop
Help us to improve Ultimate-Guitar.com Take our survey!
×
Author
Difficulty
novice
[Jaime's Part]


[Intro] (x2)

e|--------------------------|--------------------------|
B|--------------------------|--------------------------|
G|-6-6----------------------|-6-6----------------------|
D|-6-6-6br-2--2-2-6-6p4-4h6-|-6-6-6br-2--2-2-2-2-7-7/4-|
A|-4-4-----2--2-2-0-0---0---|-4-4-----2--2-2-2-2-5-5/2-|
E|---------0--0-0-----------|---------0--0-0-0-0-------|


[Verse]

e|---------------------------------|-------------------------------|
B|---------------------------------|-------------------------------|
G|---------------------------------|-------------------------------|
D|-6-6-6---------------------------|-6-6-6-------2-2-2-2-2-2-7-7/4-|
A|-4-4-4-2-2-2-2-2-2-2-2-2-2-2-2-2-|-4-4-4-2-2-2-0-0-0-0-0-0-5-5/2-|
E|-------0-0-0-0-0-0-0-0-0-0-0-0-0-|-------0-0-0-------------------|
PM  . .   . . . . . . . . . . . .     . .   . .   . . . . . 

e|---------------------------------|-------------------------------|
B|---------------------------------|-------------------------------|
G|---------------------------------|-------------------------------|
D|-6-6-6---------------------------|-6-6-6-------2-2-2-2-2-2-------|
A|-4-4-4-2-2-2-2-2-2-2-2-2-2-2-2-2-|-4-4-4-2-2-2-0-0-0-0-0-0-4-4-4-|
E|-------0-0-0-0-0-0-0-0-0-0-0-0-0-|-------0-0-0-------------2-2-2-|
PM  . .   . . . . . . . . . . . .     . .   . .   . . . . . 

e|-------------------------------------------------------------|
B|-------------------------7-----------------------------9-----|
G|-8-----9-----8-----9-----------8-----9-----8-----9-----------|   
D|---9-----9-----9-----9-----9-----9-----9-----9-----9-----9---|
A|-----7-----7-----7-----7-----7-----7-----7-----7-----7-----7-|
E|-------------------------------------------------------------|(x2)


[Pre-Chorus]

e|--------------------------|--------------------------|
B|--------------------------|--------------------------|
G|-6-6----------------------|-6-6----------------------|
D|-6-6-6br-2--2-2-6-6p4-4h6-|-6-6-6br-2--2-2-2-2-7-7/4-|
A|-4-4-----2--2-2-0-0---0---|-4-4-----2--2-2-2-2-5-5/2-|
E|---------0--0-0-----------|---------0--0-0-0-0-------|

e|--------------------------|----------------------------|
B|--------------------------|----------------------------|
G|-6-6----------------------|-6-6---------------2-2-2--2-|
D|-6-6-6br-2--2-2-6-6p4-4h6-|-6-6-6br-2--2-2-2--2-2-2--2-|
A|-4-4-----2--2-2-0-0---0---|-4-4-----2--2-2-2--0-0-0--0-|
E|---------0--0-0-----------|---------0--0-0-0-----------|


[Chorus] (x4)

[In the recording it sounds like Jaime bends the notes like this...]

e|-0-0-0-0-0---0--0--0----0-0-0-0-0-0-0-0-|
B|-4-4-4-4-4/b-4b-4b=4b/r-4-4-9-9-9-9-9-9-|
G|----------------------------------------|
D|----------------------------------------|
A|----------------------------------------|
E|----------------------------------------|


[...but live he plays this}

e|-0-0-0-0-0-0-0-0-0-0-0-0-0-0-0-0-0-0-|
B|-4-4-4-4-4/5-5-5-5/4-4-4-9-9-9-9-9-9-|
G|-------------------------------------|
D|-------------------------------------|
A|-------------------------------------|
E|-------------------------------------|


[Verse 2]

[Same concept: recording he bends, live he slides]

e|-0-0-0-0-0-0-0-0-0-0-0-0-0-0-0-0-|
B|-4-4-4/5-5-5-5-5-5-5-5-5-5-5-5-5-|
G|---------------------------------|
D|---------------------------------| 
A|---------------------------------|
E|---------------------------------|(x4)

e|-------------------------------------------------------------|
B|-------------------------7-----------------------------9-----|
G|-8-----9-----8-----9-----------8-----9-----8-----9-----------|   
D|---9-----9-----9-----9-----9-----9-----9-----9-----9-----9---|
A|-----7-----7-----7-----7-----7-----7-----7-----7-----7-----7-|
E|-------------------------------------------------------------|(x2)


[2nd Pre-Chorus] (x2)

e|-0-0-0-0-0-0-0-0-0-0-0-0-0-0-0-0-0-0-|
B|-4-4-4-4-4/5-5-5-5/4-4-4-9-9-9-9-9-9-|
G|-------------------------------------|
D|-------------------------------------|
A|-------------------------------------|
E|-------------------------------------|


[Chorus 2] (x8)

e|-0-0-0-0-0-0-0-0-0-0-0-0-0-0-0-0-0-0-|
B|-4-4-4-4-4/5-5-5-5/4-4-4-9-9-9-9-9-9-|
G|-------------------------------------|
D|-------------------------------------|
A|-------------------------------------|
E|-------------------------------------|


[Outro]

e|--------------------------|---------------------------|
B|--------------------------|---------------------------|
G|-6-6----------------------|-6-6-----------------------|
D|-6-6-6br-2--2-2-6-6p4-4h6-|-6-6-6br-2--2-2-2-2-7-7-7/-|
A|-4-4-----2--2-2-0-0---0---|-4-4-----2--2-2-2-2-5-5-5/-|
E|---------0--0-0-----------|---------0--0-0-0-0--------|


[Shane's Part]


 [Intro] (x4)
                                                            Last time plays
e|------------|--------------------------------------------|-------|  this
B|------------|--------------------------------------------|-------| <---
G|-9/11-11/13-|-13--13-13-13-13br-13--13-13-13-13-13-13-13-|-------|
D|------------|--------------------------------------------|-7-7/4-|
A|-7/9--9-/11-|-11--11-11-11-11br-11--11-11-11-11-11-11-11-|-5-5/2-|
E|------------|-9---9--9--9-------0---0--0--0--0--0--0--0--|-------|


[Verse] (x2)

e|---------------------------------|-------------------------------|
B|---------------------------------|-------------------------------|
G|---------------------------------|-------------------------------|
D|-6-6-6---------------------------|-6-6-6-------2-2-2-2-2-2-7-7/4-|
A|-4-4-4-2-2-2-2-2-2-2-2-2-2-2-2-2-|-4-4-4-2-2-2-0-0-0-0-0-0-5-5/2-|
E|-------0-0-0-0-0-0-0-0-0-0-0-0-0-|-------0-0-0-------------------|
PM  . .   . . . . . . . . . . . .     . .   . .   . . . . . 

e|---------------------------------|-------------------------------|
B|---------------------------------|-------------------------------|
G|---------------------------------|-------------------------------|
D|-6-6-6---------------------------|-6-6-6-------2-2-2-2-2-2-------|
A|-4-4-4-2-2-2-2-2-2-2-2-2-2-2-2-2-|-4-4-4-2-2-2-0-0-0-0-0-0-4-4-4-|
E|-------0-0-0-0-0-0-0-0-0-0-0-0-0-|-------0-0-0-------------2-2-2-|
PM  . .   . . . . . . . . . . . .     . .   . .   . . . . . 


[Pre-Chorus] (x4)

e|--------------------------------------------|
B|--------------------------------------------|
G|-13--13-13-13-13br-13--13-13-13-13-13-13-13-|
D|--------------------------------------------|
A|-11--11-11-11-11br-11--11-11-11-11-11-11-11-|
E|-9---9--9--9-------0---0--0--0--0--0--0--0--|


[Chorus]

[Bass notes are optional]

e|----------------------------------------------------------------------------|
B|----------------------------------------------------------------------------|
G|-------4/6--6--6--6--------4/6--6--6-2--2--4/6--6--6--6--2--2--4/6--6--6--6-|
D|-2--2--4/6--6--6--6--2--2--4/6--6--6-2--2--4/6--6--6--6--2--2--4/6--6--6--6-|
A|-2--2--2/4--4--4--4--2--2--2/4--4--4-0--0--2/4--4--4--4--0--0--2/4--4--4--4-|
E|-0--0--2/4--4--4--4--0--0--2/4--4--4-------2/4--4--4--4--------2/4--4--4--4-|


 [Verse 2] (x2)
                                          2nd time
e|-------------|-------------------------|-------|
B|-------------|-------------------------|-------|
G|-6-6-6-------|-6-6-6-------2*----------|-------|
D|-6-6-6-2*----|-6-6-6-2*----2*----7-7/4-|-4-4-4-|
A|-4-4-4-2*----|-4-4-4-2*----0*----5-5/2-|-4-4-4-|
E|-------0*----|-------0*----------------|-2-2-2-|


[Pre-Chorus 2]

e|----|
B|----|
G|----|
D|-2*-|
A|-2*-|
E|-0*-|


[Chorus] (x2)

e|----------------------------------------------------------------------------|
B|----------------------------------------------------------------------------|
G|-------4/6--6--6--6--------4/6--6--6-2--2--4/6--6--6--6--2--2--4/6--6--6--6-|
D|-2--2--4/6--6--6--6--2--2--4/6--6--6-2--2--4/6--6--6--6--2--2--4/6--6--6--6-|
A|-2--2--2/4--4--4--4--2--2--2/4--4--4-0--0--2/4--4--4--4--0--0--2/4--4--4--4-|
E|-0--0--2/4--4--4--4--0--0--2/4--4--4-------2/4--4--4--4--------2/4--4--4--4-|


[Outro]

e|--------------------------|
B|--------------------------|
G|-13--13-13-13-13-13-13-13-|
D|--------------------------|
A|-11--11-11-11-11-11-11-11-|
E|-0---0--0--0--0--0--0--0--|

e|---------------------------------------------|
B|---------------------------------------------|
G|-13--13-13-13-13br-13--13-13-13-13-13-13-13/-|
D|---------------------------------------------|
A|-11--11-11-11-11br-11--11-11-11-11-11-11-11/-|
E|-9---9--9--9-------0---0--0--0--0--0--0--0-/-|



************************************

| h   Hammer-on
| p   Pull-off
| b   Bend
| br  Bend release
| /   Slide up

************************************
Suggest correction
Give kudos to tab author, rate the tab!
1 2 3 4 5
comments
print report bad tab
guest
You may want to rate the tab now too:
select rating
Wanna post a correction for this tab? Suggest correction